» »

/0-9/311-tabs-28.html

»

Strong All Along Tabs (ver.1)

Artists:  A B C D E F G H I J K L M N O P Q R S T U V W X Y Z # 

Strong All Along Tabs (ver.1)

311
Rating:
0/5 (0 votes)

Hard to play? Try these video lessons and learn fast.
                311

This is for Greg.
LIsten to the cd for timing.  If you know the song, you'll get what I'm doing here.
This comes from the Soundsystem book, so its 100% correct.

Intro
e|----------------------------------------------------------------|
B|-8-8-10-8----8--8-10-8---8--8-10-8--------8---------------------|
G|----------10-----------10----------10---10-10-9--7----7---------|
D|---------------------------------------------------10---9-9-----|
A|----------------------------------------------------------------|
E|----------------------------------------------------------------|
Na da da da, na dow

verse(upstroke G and F for this verse below)
Feel the bass knives pass flesh enter your bone, solitude in your dance floor 
rhythm zone Let your body go just don't follow the letter, Do what you feel the
more absurd the better Don't be afraid whatever you got show, Flaunt your personality
Let um know your stylo, you could make a mean hand outta what you've been dealt
311 on wax, wax on felt


e|-----------------------------------------------------------|
B|-----------------------------------------------------------|
G|-----------------------------------------------------------|
D|---------------5--3----------------------------------------|
A|-------2-5/7-5---5---3-0---3xx-3-----3-xx-3-xx-3-3/5-------|
E|-3-3-5-------------------1-1xx-1-1-1-1-xx-1-xx-1-1/3-------|
Feelin real great cuz the weather's mild, so you re-evaluate your personal style
what makes you laugh, stands apart, what makes you feel good whats in your heart
Feelin real great cuz the weathers mild so you check us out on tour cuz you're  
likin the style, Drums, the bass, the master plan, Nice guitars the mics in our hand


chorus
e|----------------------------------------------------------|
B|----------------------------------------------------------|
G|----------------------------------------------------------|
D|----------------------------------------------------------|
A|-5---3-5---3-5--3-5-----3----3-----3-----3----------------|
E|-3---1/3---1/3--1/3--0--1--0-1---0-1---0-1----------------|
Strong all along Strong all along, Come to find out the aim of the truth
is long, I'll break it down for you like this for the hard of listening
You think you're taking the cake but whats left? Icing, drum
solo
e|---------------------------------------------------------------------------------|
B|12-12-12-10-13-12----12-12-12-10-13-12----10-8-10-8-10-8-10-10/12-(x2)-12-12-12-12
G|------------------12-------------------12----------------------------------------|
D|---------------------------------------------------------------------------------|
A|---------------------------------------------------------------------------------|
E|---------------------------------------------------------------------------------|



Use these riffs for the verse and bridge

e|-------------------------------------------------------------------------|
B|-------------------------------------------------------------------------|
G|-------------------------------------------------------------------------|
D|0-3-2-0-----------3-2-0------------------------------5----2---0----------|
A|--------3-2-0-----------3-2-0---3xx3xx3-3-5-------2----5----2---0-2------|
E|--------------3-1-------------1-1xx1xx1-1/3---3-5------------------------|
                                                              Bridge starts on
                                                              first 3
e|-------------------------3-3-3-----1-1-1-1--3-3-3xx5--------3-3-3-3-3-3--|
B|-------------------------3------5--1-1---1--5-5-5xx5--------------------5|
G|-------------------------------------2---2--4-------------4--------------|
D|----------------------------------------------------------5--------------|
A|-2-3-3xx3xxx3xx3xx3-3-5--------------------------------------------------|
E|-1-1-1xx1xxx1xx1xx1-1/3--------------------------------------------------|

e|-1-1-1-1-3--------3-5----------------------------------------------------|
B|-1-1-1-1-5--5--5---------------------------------------------------------|
G|---2--------4--4---------------------------------------------------------|
D|-------------------------------------------------------------------------|
A|-------------------------------------------------------------------------|
E|-------------------------------------------------------------------------|
Feelin real great cuz the weather's mild, so you re-evaluate your personal style
what makes you laugh, stands apart, what makes you feel good whats in your heart
To every foundation and every crew, I've got the median, here's what we're gonna do
Sendin out props straight from us to you, To every foundation and every crew, I've got the median, here's what we're gonna do
Sendin out props straight from us to you, From the malibu shores to the Brooklyn
Zoo, we've got the median, here's what we're gonna do, you wanna touch us we wanna
touch you too, Givin respect to those who keepin it true
bridge
If you are real or a replica, if your steez be like Akira wild ass Souix
or the Chippewa, your tribe's Pawnee of the Omaha, you can touch me with your fresh aura
Cuz your energy be phenomena, NOw move the people and then, oila, take on the love
and the good karma

Hope you like it, it took forever to do.
Stretch
SCOOP!!
            
Hard to play? Try these video lessons and learn fast. | Correct




comments powered by Disqus
↑ Back to top | Tablatures and chords are parodies/interpretations of the original songs. You may use it for private study, scholarship, research or language learning purposes only