>
 >
 >
Soulsucker 2

Soulsucker 2 Bass Tabs

311 - Soulsucker 2 chords, tabs, tablatures, lyrics

Guitar lessons | Add/correct | Request | Top 50 tabs Artists:  A B C D E F G H I J K L M N O P Q R S T U V W X Y Z 0-9

Soulsucker 2 Bass Tabs – 311

CD, Sheet music, Poster

Do you like Soulsucker 2? Share with your friends now
Bass TabsBass Tabs v2Tabs
Bassist: P-Nut
Tuning: B-E-A-D-G 
Notes: Great song, The riffs are short which is why this tab is so long

/ - Slide Up
\ - Slide Down
x - Mute Note
h - Hammer-On
p - Pull-Off

Intro:
G|---------------------------------------------------|
D|---------------------------------------------------|
A|---------------------------------------------------|
E|--0h1-x-1h3-x-6p5-x-5p4-x-0h1-x-1h3-x-6p5-x-5p4-x--|
B|---------------------------------------------------| (x2)

G|-----------|
D|-----------|
A|-----------|
E|--6--4--3--|
B|-----------|

G|------------------|
D|------------------|
A|------------------|
E|--6-----6---/12\--|
B|------------------|

G|---------------------------------------------------|
D|---------------------------------------------------|
A|---------------------------------------------------|
E|--0h1-x-1h3-x-6p5-x-5p4-x-0h1-x-1h3-x-6p5-x-5p4-x--|
B|---------------------------------------------------| (x2)

G|-----------|
D|-----------|
A|-----------|
E|--6--4--3--|
B|-----------|

G|------------------|
D|------------------|
A|------------------|
E|--6-----6---/12\--|
B|------------------|

G|---------------------------------------------------|
D|---------------------------------------------------|
A|---------------------------------------------------|
E|--0h1-x-1h3-x-6p5-x-5p4-x-0h1-x-1h3-x-6p5-x-5p4-x--|
B|---------------------------------------------------| (x2)

G|-----------|
D|-----------|
A|-----------|
E|--6--4--3--|
B|-----------|


Pre-Chorus: "Now you're trying, to suck my soul"
G|------------------------5--|
D|-------5--8--7-6-5----5----|
A|--------------------3------|
E|--3------------------------|
B|---------------------------|

G|-----------------------------------------|
D|--------------------------------0-1-2----|
A|--------------------------0-1-2----------|
E|--0h1-x-1h3-x-6p5-x-5p4---------------0--|
B|-----------------------------------------|


Chorus:
G|-------------------------------------------------------|
D|-------------------------------------------------------|
A|-------------------------------------------------------|
E|-------------------------------------------------------|
B|--6-x-6-x-6-7--6-x-6-x-6-4---6-x-6-x-6-7--6-x-6-x-6-4--| (x3)

G|-------------------|
D|----------8-8-8-8--|
A|-------------------|
E|--6-6-6-6----------|
B|-------------------|
    S S S S P P P P

G|----------------------------|
D|----------------------------|
A|----------------------------|
E|----------------------------|
B|--6-x-6-x-6-7--6-x-6-x-6-4--|

G|-------------------|
D|----------8-8-8-8--|
A|-------------------|
E|--6-6-6-6----------|
B|-------------------|
    S S S S P P P P

G|----------------------------|
D|----------------------------|
A|----------------------------|
E|----------------------------|
B|--6-x-6-x-6-7--6-x-6-x-6-4--|

G|----------------------5--|
D|------5--8--7--5----5----|
A|----5-------------3------|
E|--3----------------------|
B|-------------------------|

G|------------------------------|
D|------------------------------|
A|---------------------5-6-7----|
E|---------------5-6-7-------0--|
B|--6-x-6-x-6-7-----------------|

G|--------------------------|
D|----------6-6--------9-8--|
A|----8-8---------8-8-------|
E|--------------------------|
B|--6-----x-----6-----------| (x6)
    S P P S P P S P P  P P

G|-----------------|
D|-----------------|
A|--------5-6-7----|
E|--5-6-7-------0--|
B|-----------------|


Verse:
G|---------------------------|
D|---------------------------|
A|---------------------------|
E|--0h1-x-1h3-x-6p5-x-5p4-x--|
B|---------------------------| (x3)

G|----------------------|
D|----------------------|
A|----------------------|
E|--0h1-x-1h3--6--4--3--|
B|----------------------|

G|---------------------------|
D|---------------------------|
A|---------------------------|
E|--0h1-x-1h3-x-6p5-x-5p4-x--|
B|---------------------------| (x3)

G|----------------------|
D|----------------------|
A|----------------------|
E|--0h1-x-1h3--6--4--3--|
B|----------------------|


Break:
G|---------------------|
D|------------8--------|
A|----------8---8---8--|
E|--6-----6-------6----|
B|---------------------|

G|---------------------------|
D|---------------------------|
A|---------------------------|
E|--0h1-x-1h3-x-6p5-x-5p4-x--|
B|---------------------------|

G|------------------------|
D|------------------------|
A|------------------------|
E|--0h1-x-1h3--6p5-5-3-2--|
B|------------------------|

G|---------------------|
D|---------------------|
A|---------------------|
E|--6-----6--6-6-/12\--|
B|---------------------|

G|---------------------------|
D|---------------------------|
A|---------------------------|
E|--0h1-x-1h3-x-6p5-x-5p4-x--|
B|---------------------------| 

G|----------------------|
D|----------------------|
A|----------------------|
E|--0h1-x-1h3--6--4--3--|
B|----------------------|


Pre-Chorus: "Now you're trying, to suck my soul"
G|------------------------5--|
D|-------5--8--7-6-5----5----|
A|--------------------3------|
E|--3------------------------|
B|---------------------------|

G|-----------------------------------------|
D|--------------------------------0-1-2----|
A|--------------------------0-1-2----------|
E|--0h1-x-1h3-x-6p5-x-5p4---------------0--|
B|-----------------------------------------|


Chorus:
G|-------------------------------------------------------|
D|-------------------------------------------------------|
A|-------------------------------------------------------|
E|-------------------------------------------------------|
B|--6-x-6-x-6-7--6-x-6-x-6-4---6-x-6-x-6-7--6-x-6-x-6-4--| (x3)

G|-------------------|
D|----------8-8-8-8--|
A|-------------------|
E|--6-6-6-6----------|
B|-------------------|
    S S S S P P P P

G|----------------------------|
D|----------------------------|
A|----------------------------|
E|----------------------------|
B|--6-x-6-x-6-7--6-x-6-x-6-4--|

G|-------------------|
D|----------8-8-8-8--|
A|-------------------|
E|--6-6-6-6----------|
B|-------------------|
    S S S S P P P P

G|----------------------------|
D|----------------------------|
A|----------------------------|
E|----------------------------|
B|--6-x-6-x-6-7--6-x-6-x-6-4--|

G|----------------------5--|
D|------5--8--7--5----5----|
A|----5-------------3------|
E|--3----------------------|
B|-------------------------|

G|------------------------------|
D|------------------------------|
A|---------------------5-6-7----|
E|---------------5-6-7-------0--|
B|--6-x-6-x-6-7-----------------|

G|--------------------------|
D|----------6-6--------9-8--|
A|----8-8---------8-8-------|
E|--------------------------|
B|--6-----x-----6-----------| (x6)
    S P P S P P S P P  P P

G|-----------------|
D|-----------------|
A|--------5-6-7----|
E|--5-6-7-------0--|
B|-----------------|


Outro:
G|-------------------------------------------------|
D|-------------------------------------------------|
A|--------------------------------------------6-7--|
E|--5-6-7-------5-6-7-------5-6-7-------5-6-7------|
B|--------5-6-7-------5-6-7-------5-6-7------------| 

G|----------------------------------|
D|----------------------------------|
A|--8-8-8-8-8-8-8-8-8-8-8-8-8-8-----|
E|----------------------------------|
B|-------------------------------6--|
                                 S





Comments


Popular 311 tabs & chords
Beyond The Grey Sky Bass Tabs
Dancehall Bass Tabs
Juan Bond 1 Bass Tabs
Sever Bass Tabs
Sweet 2 Bass Tabs
Uncalm Bass Tabs
Who's Got The Herb? 1 Bass Tabs
Down 1 Tabs
Thank Your Lucky Stars 1 Tabs
Time Is Precious Intro Tabs


Song lyrics



↑ Back to top | Tablatures and chords are parodies/interpretations of the original songs. You may use it for private study, scholarship, research or language learning purposes only
© 2014 AZChords.com Contact us | Privacy policy | DMCA | Add/correct tabs | Request tabs | Top 50 tabs