>
 >
 >
Soulsucker

Soulsucker Guitar Tabs

311 - Soulsucker chords, tabs, tablatures, lyrics

Guitar lessons | Add/correct | Request | Top 50 tabs Artists:  A B C D E F G H I J K L M N O P Q R S T U V W X Y Z 0-9

Soulsucker Guitar Tabs – 311

CD, Sheet music, Poster

Do you like Soulsucker? Share with your friends now
Bass TabsBass Tabs v2Tabs
'Soulsucker'
Performed by 311
Music by:  N. Hexum, C. Sexton, T. Mahoney, and A. Wills
Lyrics by:  N. Hexum and D. Martinez
(c) 1992 Allegiance Music/Hydroponic Music BMI
---------------

** This song is in Dropped-D Tuning (Low E tuned down one step to D)


Riff 1:
   C#dim Em  C#dim Em7 Em  C#dim
e:-----------------------------
B:-2-----0---2-----3---0---2-2-
D:-0-----0---0-----0---0---0-0-
G:-2-----2---2-----2---2---2-2-
A:-----------------------------
D:-----------------------------

Riff 2:
   Am
e:-5--5--------5--5---5---
B:-5----5------5----5---5-
D:-5------5----5----------
G:-7--------7--7----------
A:------------------------
D:------------------------

Riff 3:
   F#m         Bm
e:-2--2--------2-
B:-2----2------3-
D:-2------2----4-
G:-4--------4--4-
A:-------------2-
D:---------------

Fill 1:
   N.C.
e:---------------
B:---------------
D:---------------
G:-------0-1-2---
A:-0-1-2---------
D:-------------2-

Chorus 1:
   E5         F5 E5         D5
e:----------------------------
B:----------------------------
D:----------------------------
G:-----2---2--3------2---2--0-
A:-----2---2--3------2---2--0-
D:-2-2-2-2-2--3--2-2-2-2-2--0-

Chorus 2:
   A5                N.C.
e:-------------------------------
B:-------------------------------
D:-------------------------5-6-7-
G:-7--7--7--7--7--7--5-6-7-------
A:-7--7--7--7--7--7--------------
D:-7--7--7--7--7--7--------------

Chorus 3:
   F#5          Bm
e:----------------
B:--------------3-
D:--------------4-
G:-4-4-4-4-4-4--4-
A:-4-4-4-4-4-4--2-
D:-4-4-4-4-4-4----

Fill 2:
   E5         F5 N.C.
e:-----------------------------
B:-----------------------------
D:-----------------------------
G:-----2---2--3--------0-1-2---
A:-----2---2--3--0-1-2---------
D:-2-2-2-2-2--3--------------2-

Bridge 1:
   E5   F5   E5   Bb5 E5
e:----------------------
B:----------------------
D:----------------3---2-
G:-2-2--3-3--2-2--3---2-
A:-2-2--3-3--2-2--1---0-
D:-2-2--3-3--2-2--------

Ending:
   N.C.                                             E
e:----------------------------------------------------
B:----------------------------------------------------
D:--------------------------------------------------1-
G:-------------------------------------------0-1-2--2-
A:-0-1-2-------0-1-2-------0-1-2-------0-1-2--------2-
D:-------0-1-2-------0-1-2-------0-1-2--------------2-


Lyrics/Song Structure:
---> Drum and Bass Intro
---> Play Riff 1 (x2)
---> Play Riff 1 over:
  All through the scandal of a small town scene
  I always handled, you like to think my spirit is mean
---> Play Riff 2 over:
  I thought you knew, thought you knew it was gonna be this way
---> Play Riff 1 (x1)
---> Play Riff 2 over:
  I guess I thought that, cause I told you nearly everyday
---> Play Riff 1 (x1)
---> Play Riff 3 over:
   And now you're tryin' to suck my soul
---> Play Riff 1 (x1)
---> Play Fill 1 (x1)
---> Play Chorus 1 (x2)
  Whoa!
---> Play Chorus 1 over:
  Well I'm sick of the chicks and sick of the bars
  I'm sick of this scene (?)  (?)
  It's sad, yeah, it's getting me mad
  I'm tired of you, pulling on me
  It makes you look foolish and why can't you see
  That it's weak, just stand on your feet
---> Play Chorus 2 over:
  Get your arms off my shoulders and get a little older, yeah
---> Play Chorus 1 (x1)
---> Play Chorus 2 over:
  The way you crash and crave makes you look like a leash to me
---> Play Chorus 1 (x1)
---> Play Chorus 3 over:
  But you cannot, cannot, suck my soul, no, no
---> Play Fill 2 over:
  (Check it out!)
---> Play Bridge 1 over:
  Well the soulsuckers must be, circumnavigated
  The soulsuckers must be, circumnavigated
  The soulsuckers must be, circumnavigated
  The soulsuckers must be, circumnavigated
---> Play Fill 1 (x1)
---> Play Riff 1 over:
  But I, promise you, I promise you,
  I will do what I want to, anyway
  You're out of luck, 'cause the souls that you suck
  Yield nothing so I say
---> Play Riff 2 over:
  Make peace with me cause I'm sure that you'll see that it's
---> Play Riff 1 over:
  No big deal to me
---> Play Riff 2 over:
  I wish you the best move on and test without me
---> Play Riff 1 over:
  Or someone like me
---> Play Riff 3 over:
  Cause you cannot, suck my soul (uh-huh)
---> Play Riff 1 (x1)
---> Play Fill 1 (x1)
---> Play Chorus 1 (x2)
  (Oh!)
---> Play Chorus 1 over:
  Well, you know the type who always will try
  To clip your wings and make you not fly
  It's lame, it's always the same
  It's (a) human instinct, to criticize
  It takes mental dexterity to keep open eyes
  It's true, it happened to you
---> Play Chorus 2 over:
  It's sad to be talkin' while others take a walk into the
---> Play Chorus 1 over:
  Promised land
---> Play Chorus 2 over:
  The way you crash and crave makes you look like a leash to me
---> Play Chorus 1 (x1)
---> Play Chorsu 3 over:
  But you cannot, cannot, suck my soul, no, no
---> Play Fill 2 (x1)
---> Play Bridge 1 over:
  Cause the soulsuckers must be, circumnavigated
  The soulsuckers must be, circumnavigated
  The soulsuckers must be, circumnavigated
  The soulsuckers must be, circumnavigated
---> Play Fill 1 (x1)
  (Check it out!)
---> Play Ending over:
  The soulsuckers-must-be-cir-cum-na-vi-ga-ted, yeaaah





Comments


Popular 311 tabs & chords
1 2 3 Bass Tabs
Creature Feature Bass Tabs
Dont Tread On Me Bass Tabs
Offbeat Bare Ass 1 Bass Tabs
Thrive Not Sink Bass Tabs
Today My Love 2 Bass Tabs
Freak Out 1 Tabs
Homebrew Tabs
Nix Hex Tabs
Beautiful Disaster Ukulele


Song lyrics



↑ Back to top | Tablatures and chords are parodies/interpretations of the original songs. You may use it for private study, scholarship, research or language learning purposes only
© 2014 AZChords.com Contact us | Privacy policy | DMCA | Add/correct tabs | Request tabs | Top 50 tabs