» »

/0-9/311-tabs-28.html

»

311, Sometimes Jacks Rule The Realm Ending Tabs (ver.1)

Artists:  A B C D E F G H I J K L M N O P Q R S T U V W X Y Z # 

Sometimes Jacks Rule The Realm Ending Tabs (ver.1)

311 Tabs
 Rating:
4/5 (4 votes)
Sometimes Jacks Rule The Realm Ending lessons Tabs too difficult? Try these video lessons and learn fast
                Tuning: Standard –EADGBE-

 In case you didn’t know, after the actual song ends, if you wait 20 or 30 seconds, a little mellow riff comes on, this is that riff. I'm pretty sure this is 100% correct. Enjoy!
E---------------------------------------------------------------------------------
B---------1------1---------------------------------1------1---------------------          x2
G--------------------------0----0h2---0---------------------------------0----2
D------2------2---------2---2-------2---------2------2---------------2---2---
A----3------2------0-------------------------3------2------0------------------
E---------------------------------------------------------------------------------


E---------------------------------------------------------------------------------
B-------1----3----1------1-0---------------------------------------------------          x2
G------------------------------2-0----------------2-0---------------------------
D-----2----2---2---2-------------2-2h3p2----------2-0-2-2h3-3-2—2-----
A---3------------------0--------------------0------------------------------0-2-
E---------------------------------------------------------------------------------

E---------------------------------------------------------------------------------
B---------1------1---------------------------------1------1---------------------          x2
G--------------------------0----0h2---0---------------------------------0----2
D------2------2---------2---2-------2---------2------2---------------2---2---
A----3------2------0-------------------------3------2------0------------------
E---------------------------------------------------------------------------------


E---------------------------------------------------------------------------------
B-------1----3----1------1-0---------------------------------------------------          x2
G------------------------------2-0----------------2-0---------------------------
D-----2----2---2---2-------------2-2h3p2----------2-0-2-2h3-3-2—2-----
A---3------------------0--------------------0------------------------------0-2-
E---------------------------------------------------------------------------------

E-------------------------------------------------------------------------------------------
B---------1------1-------------------1------1------------------------------1------1------
G-------------------------------------------------------2-0--------------------------------
D------2------2--------------------2------2---------------2-0h2-2h3---2------2--------
A----3------2------0~ -----------3------2------0-----------------------3------2------0~ 
E--------------------------------------------------------------------------------------------

E-----------------------
B-----1---------------0~
G-----2--------0-----0~
D--------------2-------
A-----------------------
E-----------------------
            
Submit corrections

comments powered by Disqus
↑ Back to top | 311 Tabs for Sometimes Jacks Rule The Realm Ending. Lyrics for acoustic guitar and electric guitar. Tablatures and chords are parodies/interpretations of the original songs. You may use it for private study, scholarship, research or language learning purposes only