>
 >
 >
Something Out Of Nothing

Something Out Of Nothing Bass Tabs

311 - Something Out Of Nothing chords, tabs, tablatures, lyrics

Guitar lessons | Add/correct | Request | Top 50 tabs Artists:  A B C D E F G H I J K L M N O P Q R S T U V W X Y Z 0-9

Something Out Of Nothing Bass Tabs – 311

CD, Sheet music, Poster

Do you like Something Out Of Nothing? Share with your friends now
Bass TabsTabsTabs v2
Intro:
G|---------------------|
D|---------------------| x4
A|---2-0-2-------------|
E|---------2-0-2-0-2---|
B|---------------------|


Verse:
G|---------------------|
D|---------------------| x8
A|---------------------|
E|---------------------|
B|---2-2---2-2-2-2-----|

G|---------------------------------------|
D|---------------------------------------|
A|---------------------------------------|
E|---------------------------------------|
B|---5-5---5-5-5-5---5-5-4-4---4-4-4-4---|

G|---------------------|
D|---------------------| x2
A|---------------------|
E|---------------------|
B|---2-2---2-2-2-2-----|

G|---------------------------------------|
D|---------------------------------------|
A|---------------------------------------|
E|---------------------------------------|
B|---5-5---5-5-5-5---5-5-4-4---4-4-4-4---|

G|---------------------|
D|---------------------| x2
A|---------------------|
E|---------------------|
B|---2-2---2-2-2-2-----|


Pre-Chorus:
G|------------------------------------------|
D|------------------------------------------|
A|------------------------------------------|
E|---7----7----7----7-----------------------|
B|-----------------------5----5----5----5---|

G|------------------------------------------|
D|------------------------------------------|
A|------------------------------------------|
E|-----------------------4----4----4----4---|
B|---4----4----4----4-----------------------|

G|------------------------------------------|
D|------------------------------------------|
A|------------------------------------------|
E|------------------------------------------|
B|---3-3-3---3-3-3---3-3-3---3-3-3----------|

G|------------------------------------------|
D|------------------------------------------|
A|------------------------------------------|
E|---2-2-2-2-2-2-2-2-2-2-2-2-2-2-2-2--------|
B|------------------------------------------|


Chorus:
G|---------------------|
D|---------------------| x8
A|---2-0-2-------------|
E|---------2-0-2-0-2---|
B|---------------------|


Verse


Pre-Chorus


Chorus


Gtr Solo:
G|-------------------------------------------------------------------|
D|-------------------------------------------------------------------| x2
A|-------------------------------------------------------------------|
E|-------------------------------------------------------------------|
B|---5-5---5-5-5-5---5-5---5-5-5-5---2-2---2-2-2-2---2-2---2-2-2-2---|

G|------------------------------------------|
D|------------------------------------------|
A|------------------------------------------|
E|---7----7----7----7----4----4----4----4---|
B|------------------------------------------|

G|------------------------------------------|
D|------------------------------------------|
A|------------------------------------------|
E|---2-2-2-2-2-2-2-2-2-2-2-2-2-2-2-2--------|
B|------------------------------------------|	

Fill:
G|--------------------|
D|--------------------| x2
A|--------------------|
E|--------2-0-2-0-2---|
B|--2-2-2-------------|	


Chorus x2


Outro:
G|-------------------|
D|-------------------| x8
A|-------------------|
E|-------------------|
B|---2-2---2-2-2-2---|





Comments


Popular 311 tabs & chords
Blizza Bass Tabs
Bomb The Town 1 Bass Tabs
Evolution 2 Bass Tabs
Taiyed Bass Tabs
Hostile Apostile Tabs
Hydroponic 1 Tabs
Ill Be Here Awhile Tabs
Strangers Tabs
Wake Up Your Mind Tabs
Wandering Around 1 Tabs


Song lyrics



↑ Back to top | Tablatures and chords are parodies/interpretations of the original songs. You may use it for private study, scholarship, research or language learning purposes only
© 2014 AZChords.com Contact us | Privacy policy | DMCA | Add/correct tabs | Request tabs | Top 50 tabs