>
 >
 >
Sick Tight 1

Sick Tight 1 Guitar Tabs

311 - Sick Tight 1 chords, tabs, tablatures, lyrics

Guitar lessons | Add/correct | Request | Top 50 tabs Artists:  A B C D E F G H I J K L M N O P Q R S T U V W X Y Z 0-9

Sick Tight 1 Guitar Tabs – 311

CD, Sheet music, Poster

Do you like Sick Tight 1? Share with your friends now
Bass TabsTabsTabs v2Tabs v3
'Sick Tight'
Performed by 311
Music by:  N. Hexum
Lyrics by:  N. Hexum & D. Martinez
(c) 2001 Hydroponic Music BMI
---------------


<#> = natural harmonic

Riff 1 (w/Distortion & Octaver):
   N.C.
e:-----------------------------------------
B:-----------------------------------------
D:-----------------------------------------
G:-----------------------------------------
A:---------4---------4---------4--4-4--7-6-
E:-2-4-0-2-4-2-4-0-2-4-2-4-0-2-4--4-4--7-6-

Riff 2 (w/Distortion & Octaver):
   C#5/G# --> E5/B --> C#5/G# --> E5/B --> C#5/G# --> E5/B --> C#5/G#
e:----------------------------------------------------------------
B:----------------------------------------------------------------
G:----------------------------------------------------------------
D:-6----------6-6-9-6---------------6-6-9-6---------------6-6-9-6-
A:-4----------4-4-7-4---------------4-4-7-4---------------4-4-7-4-
E:-4-<4>-<4>--4-4-7-4--<4>-<4>-<4>--4-4-7-4--<4>-<4>-<4>--4-4-7-4-

   N.C. 
e:---------------------------------------
B:---------------------------------------
G:---------------------------------------
D:---------------------------------------
A:---------------------------------------
E:-<4>-<3>-<3>-<3>-<2.6>-<2.3>-<2>-<1.3>-

   C#5/G# --> E5/B --> C#5/G# --> E5/B --> C#5/G# --> E5/B --> C#5/G# 
e:--------------------------------------------------------------
B:--------------------------------------------------------------
G:--------------------------------------------------------------
D:-6----------6-6-9-6---------------6-6-9-6---------------6-6-9-
A:-4----------4-4-7-4---------------4-4-7-4------<4>------4-4-7-
E:-4-<4>-<4>--4-4-7-4--<4>-<4>-<4>--4-4-7-4--<4>-----<4>--4-4-7-

   N.C.
e:---------
B:---------
G:---------
D:---------
A:-4-6----- 
E:-----0-4-

Location of harmonics:
----------------------
<4>    is right on top of the 4th fret
<3>    is just after the 3rd fret
<2.6>  is about 2/3 of the way along the 3rd fret;
         just after the dot above the fretboard
<2.3>  is about 1/3 of the way along the 3rd fret;
         just before the dot above the fretboard
<2>    is right on top of the 2nd fret
<1.3>  is about 1/3 of the way along the 1st fret

Chorus (w/Distortion):
   F#5               G5
e:-------------------------------------
B:-------------------------------------
D:-------------------------------------
G:-------------------------------------
A:-4-4-x-4-4-x-4-4-4-5-5-x-5-5-x-5-5-5-
E:-2-2-x-2-2-x-2-2-2-3-3-x-3-3-x-3-3-3-

   E5                F#5
e:-------------------------------------
B:-------------------------------------
D:-------------------------------------
G:-------------------------------------
A:-2-2-x-2-2-x-2-2-2-4-4-x-4-4-x-4-4-4-
E:-0-0-x-0-0-x-0-0-0-2-2-x-2-2-x-2-2-2-

Bridge (w/Distortion):
   N.C.
e:------------------------------------------------------------------
B:------------------------------------------------------------------
D:------------------------------------------------------------------
G:------------------------------------------------------------------
A:------------------------------------------------------------------
E:-<4>-<4>-<4>-<4>-<4>-<4>-<4>-<4>--<5>-<5>-<5>-<5>-<5>-<5>-<5>-<5>-





Comments


Popular 311 tabs & chords
All Mixed Up 4-String Bass Tabs
Intro Bass Tabs
Starshines 2 Bass Tabs
Don't Stay Home Chords
Amber Tabs
Come Original 2 Tabs
Flowing 1 Tabs
Homebrew Tabs
Rollin' Tabs
Speak Easy Tabs


Song lyrics



↑ Back to top | Tablatures and chords are parodies/interpretations of the original songs. You may use it for private study, scholarship, research or language learning purposes only
© 2014 AZChords.com Contact us | Privacy policy | DMCA | Add/correct tabs | Request tabs | Top 50 tabs