>
 >
 >
Sick Tight

Sick Tight Guitar Tabs

311 - Sick Tight chords, tabs, tablatures, lyrics

Guitar lessons | Add/correct | Request | Top 50 tabs Artists:  A B C D E F G H I J K L M N O P Q R S T U V W X Y Z 0-9

Sick Tight Guitar Tabs – 311

CD, Sheet music, Poster

Do you like Sick Tight? Share with your friends now
Bass TabsTabsTabs v2Tabs v3
NOTES
Standard tuning.  I've marked the beats in what I perceive the tempo to
be (kinda fast).  The bridge/intro riff harmonizes with the bass.  So
it sounds like the guitar plays a note on some dropped tuning, but not
so.  Infact, I may have added a bass note or two that not the guitar's,
but it still sounds good.  Also, do not be afraid to give some of the
single-note riffs a little quick vibratto.

If you see a fret inside of "< >" then its a harmonic.


Song Structure
Intro
Verse
Bridge
Chorus 1
Verse
Bridge (2x)
Chorus 2
Bridge
Chorus 2



Intro/Chorus 1 (played twice):

(Repeat 3x)
   1       2       3       4        1       2       3       4
e |--------------------------------|--------------------------------
B |--------------------------------|--------------------------------
G |--------------------------------|--------------------------------
D |--------------------------------|--------------------------------
A |--------------------------------|----------------4---------------
E |2-----------4-----------0-------|----2-----------4---------------


(Repeat 1x)
   1       2       3       4        1       2       3       4
e |--------------------------------|--------------------------------
B |--------------------------------|--------------------------------
G |6-----------------------9-------|--------8-----------------------
D |6-----------------------9-------|--------8-----------------------
A |4-----------------------7-------|--------6-----------------------
E |4-----------------------7-------|--------6-----------------------




Verse:

(It ends in two ways.  So play the first part 3x, use ending 1. Then
play the first part again, and use ending 2.  IT SHOULD BE NOTED that
ending 2 has a "pick up" which means that it does not start on the down-
beat of that measure -- it actually starts the measure before.)

(Repeat 3x)
   1       2       3       4        1       2       3       4
e |--------------------------------|--------------------------------
B |--------------------------------|--------------------------------
G |6-------x-------x-------6-------|--------------------------------
D |6-------x-------x-------6-------|--------6---------------6-------
A |4------<4>-----<4>------4-------|--------7---------------7-------
E |4------<4>-----<4>------4-------|--------4---------------4-------


(Riff 1 ending 1)
   1       2       3       4        1       2       3       4
e |--------------------------------|--------------------------------
B |--------------------------------|--------------------------------
G |6-------------------------------|--------------------------------
D |6-------------------------------|--------------------------------
A |4-------------------------------|--------------------------------
E |4------<4>-----<\>-----<3>------<\>----<\>------<2>----<1.5>-----


(Riff 1 ending 2)
...4        1       2       3       4        1       2       3...
e |--------|--------------------------------|------------------------
B |--------|--------------------------------|------------------------
G |--------|--------------------------------|------------------------
D |--------|--------------------------------|------------------------
A |----4---|------------6-------------------|------------------------
E |--------|----------------------------0---|------------4-----------


Bridge:

(Towards the end of the song, instead of muting the strings, they are 
allowed to ring with harmonics.)

(Repeat the whole bridge 2x)
   1       2       3       4        1       2       3       4
e |--------------------------------|--------------------------------
B |--------------------------------|--------------------------------
G |--------------------------------|--------------------------------
D |4-------4-----------4-----------|4-----------4-------4---4---4---
A |4-------4-----------4-----------|4-----------4-------4---4---4---
E |2-------2-----------2-----------|2-----------2-------2---2---2---


   1       2       3       4        1       2       3       4
e |--------------------------------|--------------------------------
B |--------------------------------|--------------------------------
G |--------------------------------|--------------------------------
D |5-------5-----------5-----------|5-----------5-------5---5---5---
A |5-------5-----------5-----------|5-----------5-------5---5---5---
E |3-------3-----------3-----------|3-----------3-------3---3---3---


   1       2       3       4        1       2       3       4
e |--------------------------------|--------------------------------
B |--------------------------------|--------------------------------
G |--------------------------------|--------------------------------
D |2-------2-----------2-----------|2----------2--------2---2---2---
A |2-------2-----------2-----------|2----------2--------2---2---2---
E |0-------0-----------0-----------|0----------0--------0---0---0---


   1       2       3       4        1       2       3       4
e |--------------------------------|--------------------------------
B |--------------------------------|--------------------------------
G |--------------------------------|--------------------------------
D |4-------4-----------4-----------|4-----------4-------4---4---4---
A |4-------4-----------4-----------|4-----------4-------4---4---4---
E |2-------2-----------2-----------|2-----------2-------2---2---2---



Chorus 2:

(Repeat 4x)
   1       2       3       4        1       2       3       4
e |--------------------------------|--------------------------------
B |--------------------------------|--------------------------------
G |--------------------------------|--------------------------------
D |--------------------------------|--------------------------------
A |--------------------------------|--------------------------------
E |<4>-<4>-<4>-<4>-<4>-<4>-<4>-<4>--<5>-<5>-<5>-<5>-<5>-<5>-<5>-<5>-





Comments


Popular 311 tabs & chords
Creature Feature Bass Tabs
Homebrew Bass Tabs
My Stoney Baby Bass Tabs
Stealing Happy Hours 1 Bass Tabs
Today My Love Bass Tabs
What Was I Thinking? 1 Bass Tabs
Dont Tread On Me 1 Tabs
Lifes Not A Race 1 Tabs
Rub-A-Dub Tabs
Secret Track On Evolver Tabs


Song lyrics



↑ Back to top | Tablatures and chords are parodies/interpretations of the original songs. You may use it for private study, scholarship, research or language learning purposes only
© 2014 AZChords.com Contact us | Privacy policy | DMCA | Add/correct tabs | Request tabs | Top 50 tabs