» »

/0-9/311-tabs-28.html

»

311, Seems Uncertain Tabs (ver.1)

Artists:  A B C D E F G H I J K L M N O P Q R S T U V W X Y Z # 

Seems Uncertain Tabs (ver.1)

311 Tabs
 Rating:
4/5 (4 votes)
Seems Uncertain lessons Tabs too difficult? Try these video lessons and learn fast
1
                Music by N. Hexum



Riff 1 (acoustic gtr.)
-2---2---2---2---0---0---0---0---
-2---2---2---2---0---0---0---0---
---1---1---1---1---2---2---2---2-
---------------------------------
---------------------------------
---------------------------------



Riff 2 (actoustic gtr.)
-----2-------2--0-----0---
-----2-------2--0-------0-
-----2-------2--1-1-------
-(4)-----(4)----2---2-----
-(4)-----(4)----2---------
--2----0--2-----0---------
(notes in parenthesis might not be played; hard to tell)



Riff 3 (acoustic gtr.)
-2-2-2--0-0-0--
-1-1-1--2-2-2--
-2-2-2--2-2-2--
-0-0-0--2-2-2--
--------0-0-0--
---------------
after this just strum the A chord a bunch of times



Riff 4 (acoustic gtr.)
-------------------------------------------------
-------------------------------------------------
-------------------------------------------------
-6-6-6-6-6-6-6-6-7-7-7-7-7-7-7-7-6-6-6-6-6-6-6-6-
-6-6-6-6-6-6-6-6-7-7-7-7-7-7-7-7-6-6-6-6-6-6-6-6-
-4-4-4-4-4-4-4-4-5-5-5-5-5-5-5-5-4-4-4-4-4-4-4-4-

		  Riff 4 ending
----------0--     -2------------
----------0--     -4----------4-
----------1--     -2--------2---
-6--4--2-----     -4----1-4-----
-6--4--2-----     -2--2---------
-4--2--0-----     --------------

(electric gtr. w/tremolo)
-4----5----
-4----5----
-4----6----
-6----7----
-6----7----
-4----5----
strum each chord slowly slowly



Riff 5
-0----0----
-5----2----
-6----2----
-6----2----
-4----0----
-----------
strum each chord several times


Riff 6
-0-
-5-
-6-
-6-
-4-
---
just play this chord a bunch of times



Riff 1
Riff 2
Riff 3
Riff 1
Riff 2
Riff 3
Riff 4
Riff 5
Riff 6
Riff 3 w/slight variation
            
Submit corrections

comments powered by Disqus
↑ Back to top | 311 Tabs for Seems Uncertain. Lyrics for acoustic guitar and electric guitar. 1 Tablatures and chords are parodies/interpretations of the original songs. You may use it for private study, scholarship, research or language learning purposes only