» »

/0-9/311-tabs-28.html

»

311, Seal The Deal Tabs (ver.1)

Artists:  A B C D E F G H I J K L M N O P Q R S T U V W X Y Z # 

Seal The Deal Tabs (ver.1)

311 Tabs
 Rating:
4/5 (4 votes)
Seal The Deal lessons Tabs too difficult? Try these video lessons and learn fast
                Seal the Deal
311
Soundsystem Outtake

This song is for a 7-string, but you can still play it on a 6-string
The B would make the 5th fret sound like the E.

Heavy Distortion

Intro: (Guitar 1 and 2)
e:--------------------------------------------------------
B:--------------------------------------------------------
G:--------------------------------------------------------
D:--------------------------------------------------------
A:--------------------------------------------------------
E:--11-11-11-11--9--7--5--5--5--5--4--2-------------------
B:---0--0--0--0--0--0--0--0--0--0--0--0-------------------

Verse: (Guitar 1 and 2)
e:--------------------------------------------------------
B:--------------------------------------------------------
G:--------------------------------------------------------
D:--13-13-13-13-11--9--7--7--7--7--6--4-------------------
A:---x--x--x--x--x--x--x--x--x--x--x--x-------------------
E:--11-11-11-11--9--7--5--5--5--5--4--2-------------------
B:---0--0--0--0--0--0--0--0--0--0--0--0-------------------

Pre-Chorus: (Guitar 1 and 2)
e:--------------------------------------------------------
B:--------------------------------------------------------
G:--------------------------------------------------------
D:--------------------------------------------------------
A:--------------------------------------------------------
E:--5-7-7-5-5-7-x-5-4--5-7-7-5-4-5-4-4-3------------------
B:--3-5-5-3-3-5-x-3-2--3-5-5-3-2-3-2-2-1------------------

Chorus: (Guitar 1, Guitar 2 does harmonics)
e:--------------------------------------------------------
B:--------------------------------------------------------
G:--------------------------------------------------------
D:--------------------------------------------------------
A:--------------------------------------------------------
E:--4-4-4-4-4-4-4-4-5-4-----------------------------------
B:--2-2-2-2-2-2-2-2-3-2-----------------------------------


Transition/Ending: (Guitar 1 and 2)
e:----------------|  |------------------------------------
B:----------------|  |------------------------------------
G:----------------|  |------------------------------------
D:----------------|OR|------------------------------------
A:----------------|  |------2-----------------------------
E:------7-5-4-----|  |----2---5-4-2-2---------------------
B:--0-7------7-7--|  |--0---------------------------------

Song Structure:
-->Play Intro (x2)[Guitar 1 first, then Guitar 2 comes in]
-->Play Verse

-->Play Pre-Chorus

-->Play Verse (x2)
-->Play Pre-Chorus

-->Play Verse (x2)
-->Play Transition
-->Play Chorus

-->Play Verse

-->Play Pre-Chorus

-->Play Verse (x2)
-->Play Pre-Chorus

-->Play Verse (x2)
-->Play Transition
-->Play Chorus

-->Play Verse (x2)
-->Play Transition
-->Play Chorus

-->Play Verse (x2)
-->Play End
            
Submit corrections

comments powered by Disqus
↑ Back to top | 311 Tabs for Seal The Deal. Lyrics for acoustic guitar and electric guitar. Tablatures and chords are parodies/interpretations of the original songs. You may use it for private study, scholarship, research or language learning purposes only