>
 >
 >
Same Mistake Twice 1

Same Mistake Twice 1 Guitar Tabs

311 - Same Mistake Twice 1 chords, tabs, tablatures, lyrics

Guitar lessons | Add/correct | Request | Top 50 tabs Artists:  A B C D E F G H I J K L M N O P Q R S T U V W X Y Z 0-9

Same Mistake Twice 1 Guitar Tabs – 311

CD, Sheet music, Poster

Do you like Same Mistake Twice 1? Share with your friends now
TabsTabs v2
Tuning: Standard (E A D G B E)


Before the song:

E |----------------------------------------------------------||
B |----------------------------------------------------------||
G |----------------------------------------------------------||
D |--10-10---8-8---6-6---5-5---------------------------------||
A |--10-10---8-8---6-6---5-5----------///3---let ring--------||
E |---8--8---6-6---4-4---3-3---------------------------------||

Drum intro

Intro/Chorus:                                          Song Structure:

E|-----------------------------------------||      Before the song
B|-----------------------------------------||      Drum Intro
G|----------------5-5-5-5-5--3-------------||      Intro/Chorus with I/C Riff
D|--3-3-3-3--6-6--5-5-5-5-5--3--6--5-------||      Verse
A|--3-3-3-3--6-6--3-3-3-3-3--1--6--5-------||      Intro/Chorus with I/C Riff
E|--1-1-1-1--4-4--3-3-3-3-3--1--4--3-------||      Verse
                                                   Intro/Chorus with I/C Riff
Intro/Chorus Riff:                                 Breakdown
                                                   Intro/Chorus with I/C Riff
E|---------------------------------||              Outro with Outro Riff
B|---------------------------------||              End on
G|---7h8--8h10--10h12--------------||              End notes
D|---------------------------------||
A|---------------------------------||
E|---------------------------------||


Verse:

E|---------------------------------------------||       E|--------------||
B|---------------------------------------------||       B|--------------||
G|---------------------------------------------||       G|--------------||
D|--2-------------------2----------------------||       D|-2--3--4--5---||
A|--2-------------------2----------------------||       A|-2--3--4--5---||
E|--0--<3>-<3>-<3>------0--<4>-<4>-<4>---------||       E|-0--1--2--3---||

E|---------------------------------------------||       E|--------------||
B|---------------------------------------------||       B|--------------||
G|---------------------------------------------||       G|--------------||
D|--5-------------------5----------------------||       D|-5--4--3--2---||
A|--5-------------------5----------------------||       A|-5--4--3--2---||
E|--3--<3>-<3>-<3>------3--<4>-<4>-<4>---------||       E|-3--2--1--0---||


E|-------------------------------------------------||  E|---------------||
B|-------------------------------------------------||  B|---------------||
G|-------------------------------------------------||  G|---------------||
D|-2---------------2---------------2---------------||  D|--2--3--4--5---||
A|-2---------------2---------------2---------------||  A|--2--3--4--5---||
E|-0--<3>-<3>-<3>--0--<4>-<4>-<4>--0--<3>-<3>-<3>--||  E|--0--1--2--3---||


E|-----------------------------------------||    E|---------------------||
B|-----------------------------------------||    B|---------------------||
G|-----------------------------------------||    G|-4-4-4-4---5-5-------||
D|--5-------------------5------------------||    D|-4-4-4-4---5-5--4-4--||
A|--5-------------------5------------------||    A|-2-2-2-2---3-3--4-4--||
E|--3--<3>-<3>-<3>------3--<4>-<4>-<4>-----||    E|-2-2-2-2---3-3--2-2--||


Breakdown:

E|----------------------------------------||         E|----------0------||
B|----------------------------------------||         B|----------0------||
G|--5-5-5-5--2-2-2-2--3-3-3-3-------------||         G|-----------------||
D|--5-5-5-5--2-2-2-2--3-3-3-3--3-3-3-3----||         D|--2--------------||
A|--3-3-3-3--0-0-0-0--3-3-3-3--3-3-3-3----||         A|--2--------------||
E|--3-3-3-3--0-0-0-0--1-1-1-1--1-1-1-1----||         E|--0--------------||


E|--------------------------------------------------------------------||
B|--------------------------------------------------------------------||
G|--2-x-x-x-2-x-x-x-2-x-x-x-2-x-x-x-----------------------------------||
D|--2-x-x-x-2-x-x-x-2-x-x-x-2-x-x-x-2-x-x-x-2-x-x-x-2-x-x-x-2---------||
A|--0-x-x-x-0-x-x-x-0-x-x-x-0-x-x-x-2-x-x-x-2-x-x-x-2-x-x-x-2---------||
E|--0-x-x-x-0-x-x-x-0-x-x-x-0-x-x-x-0-x-x-x-0-x-x-x-0-x-x-x-0---------||


E|------------------------||
B|------------------------||
G|-2-2--3-3--4-4--5-5-----||
D|-2-2--3-3--4-4--5-5-----||
A|-0-0--1-1--2-2--3-3-----||
E|-0-0--1-1--2-2--3-3-----||


Outro:                                                     Outro Riff:

E|-------------------------------------------------| E|----------------------------|
B|-------------------------------------------------| B|----------------------------|
G|---------------------------------5-5-x-x-5-5-x-x-| G|-5-5-5--3-3-3--1-1-1--0-0-0-|
D|-3-3-x-x-3-3-x-x-6-6-x-x-6-6-x-x-5-5-x-x-5-5-x-x-| D|----------------------------|
A|-3-3-x-x-3-3-x-x-6-6-x-x-6-6-x-x-3-3-x-x-3-3-x-x-| A|----------------------------|
E|-1-1-x-x-1-1-x-x-4-4-x-x-4-4-x-x-3-3-x-x-3-3-x-x-| E|----------------------------|


End on:                                       End notes:

E|-------||                                  E|---------||
B|-------||                                  B|---------||
G|---5---||                                  G|---------||
D|---5---||                                  D|--3\2----||
A|---3---||                                  A|---------||
E|---3---||                                  E|---------||





Comments


Popular 311 tabs & chords
Beyond The Grey Sky 1 Bass Tabs
Fat Chance Bass Tabs
Grassroots Bass Tabs
Dont Tread On Me Chords
Tune In Chords
Don't Stay Home Tabs
Down 1 Tabs
Feels So Good Tabs
Freak Out 2 Tabs
Random 1 Tabs


Song lyrics



↑ Back to top | Tablatures and chords are parodies/interpretations of the original songs. You may use it for private study, scholarship, research or language learning purposes only
© 2014 AZChords.com Contact us | Privacy policy | DMCA | Add/correct tabs | Request tabs | Top 50 tabs