» »

/0-9/311-tabs-28.html

»

311, 100 Rock Tabs (ver.2)

Artists:  A B C D E F G H I J K L M N O P Q R S T U V W X Y Z # 

100 Rock Tabs (ver.2)

311 Tabs
Rating:
0/5 (0 votes)
Hard to play? Try these video lessons and learn fast.
                "(0)
100% Correct Tab

Rock 100 By Chad Sexton



Intro:

e-------------------------------|
B-------------------------------|
G-------------------------------|
D-------------------------------|
A----3---3---3---3----3---3---3-|
E--1---2---1---2----1---2---1---|x6


e----------------------------------------------------------------------------|
B----------------------------------------------------------------------------|
G----------------------------------------------------------------------------|
D----------------------------------------------------------------------------|
A----------------------------------------------------------------------------|
E--2--0-2-2xxx5-3-5--2--0-2-2xxx5-3-5--2--0-2-2xxx5-3-5--2-x-5-3-5-2-0-0-0h2-|x2


e-------------------------------|
B-------------------------------|
G-------------------------------|
D-------------------------------|
A----3---3---3---3----3---3---3-|
E--1---2---1---2----1---2---1---|x4


e----------------------------------------------------------------------------|
B----------------------------------------------------------------------------|
G----------------------------------------------------------------------------|
D----------------------------------------------------------------------------|
A----------------------------------------------------------------------------|
E--2--0-2-2xxx5-3-5--2--0-2-2xxx5-3-5--2--0-2-2xxx5-3-5--2-x-5-3-5-2-0-0-0h2-|x2


e----------------------------|
B----------------------------|
G----------------------------|
D----------------------------|
A--999-7-66--66--666-4-22-22-|
E--777-5-44--44--444-2-00-00-|x4


e----------------|
B----------------|
G----------------|
D----------------|
A----------------|
E--0--5--7--5--8-|


e-------------------------------|
B-------------------------------|
G-------------------------------|
D-------------------------------|
A----3---3---3---3----3---3---3-|
E--1---2---1---2----1---2---1---|x4


e----------------------------------------------------------------------------|
B----------------------------------------------------------------------------|
G----------------------------------------------------------------------------|
D----------------------------------------------------------------------------|
A----------------------------------------------------------------------------|
E--2--0-2-2xxx5-3-5--2--0-2-2xxx5-3-5--2--0-2-2xxx5-3-5--2-x-5-3-5-2-0-0-0h2-|x2


e----------------------------|
B----------------------------|
G----------------------------|
D----------------------------|
A--999-7-66--66--666-4-22-22-|
E--777-5-44--44--444-2-00-00-|x7


e----------------|
B----------------|
G----------------|
D----------------|
A----------------|
E--0--5--7--5--8-|
"            

comments powered by Disqus
↑ Back to top | 311 Tabs for 100 Rock. Lyrics for acoustic guitar and electric guitar. Tablatures and chords are parodies/interpretations of the original songs. You may use it for private study, scholarship, research or language learning purposes only