» »

/0-9/311-tabs-28.html

»

Prisoner Bass tabs (ver.2)

Artists:  A B C D E F G H I J K L M N O P Q R S T U V W X Y Z # 

Prisoner Bass tabs (ver.2)

311
Rating:
0/5 (0 votes)

Tabs too difficult? Try these video lessons and learn fast.
                (2)
311
PRISONER

INTRO
G]-------------------------
D]-----------3-3-3---------
A]-----2-3-5--------5-3----
E]-2-2---------------------

VERSE
G]-----------------------
D]---------3-------------
A]------5-----5----------
E]--3-3----------3-3-----

CHORUS
G]----------------------
D]-----------3-3--------
A]-----2-3-5------5-3---
E]-2-2------------------
            
Tabs too difficult? Try these video lessons and learn fast.


comments powered by Disqus
↑ Back to top | Tablatures and chords are parodies/interpretations of the original songs. You may use it for private study, scholarship, research or language learning purposes only