» »

/0-9/311-tabs-28.html

»

Prisoner Bass tabs (ver.4)

Artists:  A B C D E F G H I J K L M N O P Q R S T U V W X Y Z # 

Prisoner Bass tabs (ver.4)

311
Rating:
0/5 (0 votes)

Hard to play? Try these video lessons and learn fast.
                -------------------------------------------------------------------------------
			     PRISONER - 311
-------------------------------------------------------------------------------


Tuning:Standard

intro:
G|----------------------------------------------------|
D|--------------3--3--3-------------------3--3--3-----|x4
A|---------2-5----------5-2----------2-5----------5-2-|
E|-3--3--3-------------------3--3--3------------------|

verse:
G|------------------------------------------|
D|-----------3---------------------3--------|x6
A|---------5---5-----------------5---5------|
E|-3--3----------1--1----3--3----------1--1-|

G|----------------------------------------------|
D|----------------------------------------------|x2
A|----------------------------------------------|
E|-3-3-3-3-3-3-3-5-1--1----3-3-3-3-3-3-3-5-1--1-|

G|--------------------------------------------------------------------|
D|---------------------------------------------------------0-3-0------|
A|--------------------------------------------------------------------|
E|-3--3------------3--3------------3--3------------3--3----------1--1-|

chorus:
G|----------------------------------------------------|
D|--------------3--3--3-------------------3--3--3-----|x2
A|---------2-5----------5-2----------2-5----------5-2-|
E|-3--3--3-------------------3--3--3------------------|

verse:
G|------------------------------------------|
D|-----------3---------------------3--------|x3
A|---------5---5-----------------5---5------|
E|-3--3----------1--1----3--3----------1--1-|

G|----------------------------------------------|
D|----------------------------------------------|
A|----------------------------------------------|
E|-3-3-3-3-3-3-3-5-1--1----3-3-3-3-3-3-3-5-1--1-|

G|------------------------------------------|
D|-----------3---------------------3--------|
A|---------5---5-----------------5---5------|
E|-3--3----------1--1----3--3----------1--1-|

G|----------------------------------------------|
D|----------------------------------------------|
A|----------------------------------------------|
E|-3-3-3-3-3-3-3-5-1--1----3-3-3-3-3-3-3-5-1--1-|

chorus:
G|----------------------------------------------------|
D|--------------3--3--3-------------------3--3--3-----|x2
A|---------2-5----------5-2----------2-5----------5-2-|
E|-3--3--3-------------------3--3--3------------------|

verse:
G|-------------------------------------------|
D|----------3-----------------------3--------|x2
A|--------5---5-------------------5---5------|
E|--------------1--1--------------------1--1-|

chorus:
G|----------------------------------------------------|
D|--------------3--3--3-------------------3--3--3-----|x4
A|---------2-5----------5-2----------2-5----------5-2-|
E|-3--3--3-------------------3--3--3------------------|

| /  slide up
| \  slide down
| h  hammer-on
| p  pull-off
| ~  vibrato
| +  harmonic
| x  Mute note
===============================================================================
            
Hard to play? Try these video lessons and learn fast. | Correct




comments powered by Disqus
↑ Back to top | Tablatures and chords are parodies/interpretations of the original songs. You may use it for private study, scholarship, research or language learning purposes only