>
 >
 >
Paradise

Paradise Guitar Tabs

311 - Paradise chords, tabs, tablatures, lyrics

Guitar lessons | Add/correct | Request | Top 50 tabs Artists:  A B C D E F G H I J K L M N O P Q R S T U V W X Y Z 0-9

Paradise Guitar Tabs – 311

CD, Sheet music, Poster

Do you like Paradise? Share with your friends now
Bass TabsTabs
'Paradise'
Performed by 311
Music by:  N. Hexum, C. Sexton, T. Mahoney & A. Wills
Lyrics by:  N. Hexum & D. Martinez
(c) 1993 Allegiance Music/Hydroponic Music BMI
---------------


Bass Intro (5-string Bass):
   N.C.
1:
2:---------------------
3:---------------------
4:-0-2-0-2-0-2-0-2-----
5:-----------------2-2-

Intro/Ending (w/Phaser):
   N.C.                              **
1:---------------------------------------------------------
2:---------------------------------------------------------
3:-8--11//14--13--8-8-8-8//6-6-6-6//4--8-8-8-8//6-6-6-6//4-
4:---------------------------------------------------------
5:-6---9//12--11--6-6-6-6//4-4-4-4//2--6-6-6-6//4-4-4-4//2-
6:---------------------------------------------------------

At ** on second time play:
[Guitar 1:]
                           F#5   B5 A5 F#5 A5 B5 A5
1:-------------------------------------------------
2:-------------------------------------------------
3:-------------------------------4--2------2--4--2-
4:-------------------------4--4--4--2--4---2--4--2-
5:-------------------------4--4--2--0--4---0--2--0-
6:-------------------------2--2--------2-----------

[Guitar 2:]
   A5 B5 A5 B5 A5 B5 A5 B5 F#5   B5 A5 F#5 A5 B5 A5
1:-------------------------------------------------
2:-------------------------------------------------
3:-------------------------------------------------
4:-2--4--2--4--2--4--2--4--------4--2------2--4--2-
5:-0--2--0--2--0--2--0--2--4--4--2--0--4---0--2--0-
6:-------------------------2--2--------2-----------

Verse A (Clean):
[Guitar 1:]
   Amaj7    D7       Amaj7    D7
1:-4-4-4-4--2-2-2-2--4-4-4-4--2-2-2-2-
2:-2-2-2-2--1-1-1-1--2-2-2-2--1-1-1-1-
3:-2-2-2-2--2-2-2-2--2-2-2-2--2-2-2-2-
4:-2-2-2-2--0-0-0-0--2-2-2-2--0-0-0-0-
5:-0-0-0-0-----------0-0-0-0----------
6:------------------------------------

[Guitar 2:]
   E6           F#dim        E6           F#dim
1:----------------------------------------------------
2:-5-5-5--5--5--7-7-7--7--7--5-5-5--5--5--7-7-7--7--7-
3:-6-6-6--6--6--5-5-5--5--5--6-6-6--6--6--5-5-5--5--5-
4:-6-6-6--6--6--7-7-7--7--7--6-6-6--6--6--7-7-7--7--7-
5:----------------------------------------------------
6:----------------------------------------------------

- or -
   Amaj7        D7           Amaj7        D7
1:-0-0-0--0--0--2-2-2--2--2--0-0-0--0--0--2-2-2--2--2-
2:-2-2-2--2--2--1-1-1--1--1--2-2-2--2--2--1-1-1--1--1-
3:-1-1-1--1--1--2-2-2--2--2--1-1-1--1--1--2-2-2--2--2-
4:-2-2-2--2--2--0-0-0--0--0--2-2-2--2--2--0-0-0--0--0-
5:-0-0-0--0--0---------------0-0-0--0--0--------------
6:----------------------------------------------------

Verse B:
[Guitar 1:]
   F#m      Bm       F#m      Bm       C#m
1:-2-2-2-2--2-2-2-2--2-2-2-2--2-2-2-2--4-4-4-4-4-4-4-
2:-2-2-2-2--3-3-3-3--2-2-2-2--3-3-3-3--5-5-5-5-5-5-5-
3:-2-2-2-2--4-4-4-4--2-2-2-2--4-4-4-4--6-6-6-6-6-6-6-
4:-4-4-4-4--4-4-4-4--4-4-4-4--4-4-4-4--6-6-6-6-6-6-6-
5:-4-4-4-4--2-2-2-2--4-4-4-4--2-2-2-2--4-4-4-4-4-4-4-
6:-2-2-2-2-----------2-2-2-2-------------------------
                                     *

[Guitar 2:]
   A6       Bm       A6       Bm       C#m
1:-2-2-2-2--2-2-2-2--2-2-2-2--2-2-2-2--4-4-4-4-4-4-4-
2:-2-2-2-2--3-3-3-3--2-2-2-2--3-3-3-3--5-5-5-5-5-5-5-
3:-2-2-2-2--4-4-4-4--2-2-2-2--4-4-4-4--6-6-6-6-6-6-6-
4:---------------------------------------------------
5:---------------------------------------------------
6:---------------------------------------------------
                                     *

Verse C (Play after the * in Verse B):
[Guitar 1:]
   B5 A5 F#5 A5 B5 A5
1:-------------------
2:-------------------
3:-------------------
4:-4--2------2--4--2-
5:-2--0--4---0--2--0-
6:-------2-----------

[Guitar 2:]
   B5 A5 F#5 A5 B5 A5
1:-------------------
2:-------------------
3:-4--2------2--4--2-
4:-4--2--4---2--4--2-
5:-2--0--4---0--2--0-
6:-------2-----------

Pre-Chorus:
   E5           B5
1:----------------------
2:----------------------
3:----------------------
4:--------------4-4-4-4-
5:-2-2-2-2-2-2--2-2-2-2-
6:-0-0-0-0-0-0----------

Chorus A:
[Guitar 1:]
   G    C
1:-3-3------
2:-3-3--5-5-
3:-4-4--5-5-
4:-5-5--5-5-
5:-5-5--3-3-
6:-3-3------

[Guitar 2:]
   G            C/G
1:---------------------------
2:---------------------------
3:---------------------------
4:---------------------------
5:---5--------5---7--------7-
6:-3---3-3--3---3---3-3--3---

Chorus B:
[Guitar 1:]
   F#m
1:-2-
2:-2-
3:-2-
4:-4-
5:-4-
6:-2-

[Guitar 2:]
   F#5
1:---
2:---
3:---
4:-4-
5:-4-
6:-2-

Bridge 1:
   N.C.
1:-----------------------------------
2:-----------------------------------
3:-----------------------------------
4:-----------------------------------
5:---5-5-5--5-5-5--5----5-5-5--5-5-5-
6:-0------------------0--------------

Bridge 2:
   N.C.
1:------------------------------
2:------------------------------
3:------------------------------
4:------------------------------
5:---------5------5-------7-----
6:-0--3--3---3-3----3--3----3-3-


Lyrics/Song Structure:
---> Fade in Guitar
---> Play Intro/Ending (x1)
---> Play Verse (A + B) over:
   Everything you do it comes back to you
   Whatever it may be
   If it isn't one thing rest assured that something
   Will come back and pay you for your deed
   A shortcut's a self defeating means, if you cannot do it clean
   You'll never reach your reward
   And when the day is done, what you recieve is the sum
   Of what you took out, from what you put in
---> Play Pre-Chorus over:
   Times deep in a dream seem a vieled realm
   Shadows what I think and feel is real
   Times in our tribe feel the tribe when we thrive
   We have no fear of death and no fear of life
---> Play Chorus A over:
   I can't forget you and our version of paradise
   I can't forget you and our version of paradise
---> Play Chorus B (x1)
---> Play Verse (A + B) over:
   Everything you do it comes back to you, whatever it may be
   What you did as a devil or did as an angel
   The favor returns itself somehow
   If you take my money I'l buy you a drink and you'll see
   That no one rides for free
   Afraid of what I said then your mind is stricken
   I'm wearing my heart sleeveless and I'm always up for chicken
   This is my favorite city pity everywhere the enemy
---> Play Pre-Chorus over:
   From the beginning serious history
   Nothing's ever given to no one rides for free
   From the beginning radiant energy's
   Music what I need to keep my sanity
---> Play Bridge 1 over:
   I say we fear no evolution stand up musical revolution
   Follow me now when I say we can never stop in we never give
   Cuz this is how we breathe and live
   Some of them whine and some of them bitch
   They cannot do it we never switch
   We do it for ourselves and we do it for you
   If you don't like it well I hope you do
---> Play Bridge 2 over:
   I've got to be honest
   I've got to be honest
---> Play Chorus A over:
   I can't forget you and our version of paradise
   I can't forget you and our version of paradise
   I can't forget you and our version of paradise
   I can't forget you and our version of paradise
---> Play Chorus B (x1)
---> Play Intro/Ending (x1)





Comments


Popular 311 tabs & chords
Coda Secret Evolver Track Bass Tabs
Love Song Bass Tabs
Nix Hex 1 Bass Tabs
Soulsucker Bass Tabs
Sweet Bass Tabs
T&P Combo 1 Bass Tabs
Amber 1 Tabs
Empire Tabs
No Control 1 Tabs
Wake Your Mind Up Tabs


Song lyrics



↑ Back to top | Tablatures and chords are parodies/interpretations of the original songs. You may use it for private study, scholarship, research or language learning purposes only
© 2014 AZChords.com Contact us | Privacy policy | DMCA | Add/correct tabs | Request tabs | Top 50 tabs