» »

/0-9/311-tabs-28.html

»

Other Side Of Things Tabs (ver.2)

Artists:  A B C D E F G H I J K L M N O P Q R S T U V W X Y Z # 

Other Side Of Things Tabs (ver.2)

311
Rating:
0/5 (0 votes)

Hard to play? Try these video lessons and learn fast.
                'Other Side of Things'
Performed by 311
Music by:  C. Sexton
Lyrics by:  N. Hexum/D. Martinez
(c) 2003 Hydroponic Music BMI
---------------


Intro/Verse (w/Distortion)

E:------------
B:------------
G:-4--7--9--5-
D:-4--7--9--5-
A:-2--5--7--3-
E:-2--5--7--3-


Riff 2 (w/Distortion)

E:-------------
B:-------------
G:-4--2--------
D:-4--2--5--4--
A:-2--0--5--4--
E:-------3--2--


chorus: (w/Distortion)

E:---------------|------------------------------
B:---------------|------------------------------
G:-------9--9--9-|------------------------------
D:-9--9--9--9--9-|(x2)-12--11-11--9--9--9-------
A:-9--9--7--7--7-|-----12--11-11--9--9--9--(x2)-
E:-7--7--7--7--7-|-----10--9--9---7--7--7-------


Riff 3 (w/Distortion)

E:-----------------------|-----------------------
B:-----------------------|-----------------------
G:-----------------------|-6-X-X-6-X-6-----------
D:-8-X-X-8-X-8--4--4--4--|-6-X-X-6-X-6--6--6--6--
A:-8-X-X-8-X-8--4--4--4--|-4-X-X-4-X-4--6--6--6-- (don't repeat last time)
E:-6-X-X-6-X-6--2--2--2--|-4-x-x-4-x-4--4--4--4--


Solo (w/Distortion)

E:--------------------------------------------------
B:--------------------------------------------------
G:--------------------------------------------------
D:-1------------------------------------------------
A:----4--1h2h1---------------------------------(x3)-
E:--------------4--0h2----0h2--4--0h2p4--2h4p2------


E:--------------------------------------------------
B:--------------------------------------------------
G:--------------------------------------6-----------
D:-1------------------------------------6--6--------
A:----4--1h2h1--------------------------4--6---(x1)-
E:--------------4--0h2----0h2--4--0--2-----4--------


Ending

E:-----
B:-----
G:--7--
D:--7--
A:--5--
E:-----




Song Structure

Intro/Verse (x11)
Riff 2
Chorus (x2)
Riff 3 (x4)
Riff 2
Intro/Verse (x7)
Riff 2
Chorus (x2)
Riff 3 (x4)
Riff 2
Solo
Riff 3 (x4)
Riff 2 (x2)
Ending
            
Hard to play? Try these video lessons and learn fast. | Correct




comments powered by Disqus
↑ Back to top | Tablatures and chords are parodies/interpretations of the original songs. You may use it for private study, scholarship, research or language learning purposes only