>
 >
 >
Omaha Stylee

Omaha Stylee Guitar Tabs

311 - Omaha Stylee chords, tabs, tablatures, lyrics

Guitar lessons | Add/correct | Request | Top 50 tabs Artists:  A B C D E F G H I J K L M N O P Q R S T U V W X Y Z 0-9

Omaha Stylee Guitar Tabs – 311

CD, Sheet music, Poster

Do you like Omaha Stylee? Share with your friends now
Bass TabsTabsTabs v2
311-Omaha Stylee

This ia great song because Omaha Nebraska ***in rocks

intro
e------------------------
b------------------------
g------------------------
d------------------------
a------------------------
E--7----8/----3----0----5

verse
e-----------------------------------------------------------------
b-----------------------------------------------------------------
g-----------------------------------------------------------------
d-----------------------------------------------------------------
a--------3-6-5------------3-6-5-3--------3-6-5---------3-6-5-3-5--
E--5--5-------------5---5-----------5--5------------5------------1

e----------------------------------------------------------------------------
b----------------------------------------------------------------------------
g----------------------------------------------------------------------------
d----------------------------------------------------------------------------
a--0---0-2-3-2-0---0---0-2-3-2-0-0------3-6-5-----3-6-5---------3-6-5-3-5----
E----1-----------1---1----------------5----------5--------5---5-----------5--

e-------------------------------------------------------------------------
b-------------------------------------------------------------------------
g-------------------------------------------------------------------------
d-------------------------------------------------------------------------
a--------3-6-5---------3-6-5-3-5------------------------------------------
E-----5------------5-------------0---5----0--3---0--5---0--3---0--5---0--3

Pre Chorus
e-------------------------------------------------------------------------------
b-------------------------------------------------------------------------------
g-------------------------------------------------------------------------------
d-------------------------------------------------------------------------------
a--3-3--3--------------3----3--3------3-------3---3--3---------------0--3--3---3
E-----------0--1---3---------------3-------3------------0---1---1--1------------

e----------------------------------
b----------------------------------
g----------------------------------
d---------------------------------
a-3--3------3-----3-----3---------
E--------3-----3-----3-----3-------

Chorus
e-----------------------------------------------------------------------------------
b-----------------------------------------------------------------------------------
g-----------------------------------------------------------------------------------
d---2-------------------------------------------------------------------------------
a---2------5----2----2----3------4---------0--------------------------------------
E---0------3----0----3----4------5---------------3----2----3----2-----0----2-------

e-----------------------------------------------------------------------------------
b-----------------------------------------------------------------------------------
g-----------------------------------------------------------------------------------
d-----------------------------------------------------------------------------------
a--2--------2----2------2----3--------4---------------------------------------------
E--0--------3----0------3----4--------5---------0---0----3/5-----0----0----3/5----0-

e-----------------------------------------------------------------------------------
b-----------------------------------------------------------------------------------
g-----------------------------------------------------------------------------------
d-----------------------------------------------------------------------------------
a--2-------2--2--3-----4----0-------------------2----2--2--2--3------4--------------
E--0----3--0--3--4-----5------3--2--3--2--0--2--0----3--0--3--4------5----0--0--0--

E-0--0--0--0--0----

e-----------------------------------------------------------------------------------
b-----------------------------------------------------------------------------------
g-----------------------------------------------------------------------------------
d--4--4--4--4---7--7--7--6------6--6--6--6----6----4--4----4--4---7--7--7--6----6--6
a--4--4--4--4---7--7--7--6------6--6--6--6----6----4--4----4--4---7--7--7--6----6--6
E--2--2--2--2-/-5--5--5--4------4--4--4--4----4----2--2----2--2-/-5--5--5--4----4--4

e---------------
b---------------
g---------------
d-6--6----6-----
a-6--6----6-----
E-4--4----4-----

Bridge
e-----------------------------3--------------------------------3--------------------
b-----------------------------3--------------------------------3--------------------
g-----------------------------0--------------------------------0--------------------
d----2------2--------2--------0--------2------2-------2--------0--------------------
a----2------2----2---2--------x--------2------2----2--2--------x--------------------
E----0------0----0---0--------3--------0------0----0--0--------3--------------------

e------------------------3--------------3------6--------9--------12-----------------
b------------------------3--------------2------5--------8--------11-----------------
g------------------------0--------------3------6--------9--------12-----------------
d------------------------0--------------2------5--------8--------11-----------------
a------------------------x----------------------------------------------------------
E--0------0----0--0------3----------------------------------------------------------

Outro
e-----------------------------------------------------------------------------------
b-----------------------------------------------------------------------------------
g-----------------------------------------------------------------------------------
d-----------------------------------------------------------------------------------
a--7----5---------5-----------------------------------------------------------------
E------------7---------7----5----7----5----3----5----3----2----3----2----0----2-----

PM..................................................................................

e-----------------------------------------------------------------------------------
b-----------------------------------------------------------------------------------
g-----------------------------------------------------------------------------------
d-----------------------------------------------------------------------------------
a--7----5---------5-----------------------------------------------------------------
E------------7---------7----5----7----5----3----5----3----2----3----2----0----2-----

"slower"
e-----------------------------------------------------------------------------------
b-----------------------------------------------------------------------------------
g-----------------------------------------------------------------------------------
d-----------------------------------------------------------------------------------
a--7----5---------5-----------------------------------------------------------------
E------------7---------7----5----7----5----3----5----3----2----3----2----0----2-----

e-----------------------------------------------------------------------------------
b-----------------------------------------------------------------------------------
g-----------------------------------------------------------------------------------
d-----------------------------------------------------------------------------------
a--7----5---------5-----------------------------------------------------------------
E------------7---------7----5----7----5----3----5----3----2----3----2----0----2-----

pm..................................................................................

e-----------------------------------------------------------------------------------
b-----------------------------------------------------------------------------------
g-----------------------------------------------------------------------------------
d--2--------------------------------------------------------------------------------
a--2---5--2--2--3----4--------------------------------------------------------------
E--0---3--0--3--4----5--------------------------------------------------------------



Order

Intro
Verse
Verse
pre-chorus
chorus
Bridge
Outro





Comments


Popular 311 tabs & chords
Galaxy Bass Tabs
Hydroponic 2 Bass Tabs
Sick Tight Bass Tabs
Buster 101 Tabs
Come Original 2 Tabs
Count Me In Tabs
Hive 2 Tabs
Speak Easy Tabs
Summer Of Love Tabs
Time Is Precious Tabs


Song lyrics



↑ Back to top | Tablatures and chords are parodies/interpretations of the original songs. You may use it for private study, scholarship, research or language learning purposes only
© 2014 AZChords.com Contact us | Privacy policy | DMCA | Add/correct tabs | Request tabs | Top 50 tabs