>
 >
 >
Old Funk

Old Funk Bass Tabs

311 - Old Funk chords, tabs, tablatures, lyrics

Guitar lessons | Add/correct | Request | Top 50 tabs Artists:  A B C D E F G H I J K L M N O P Q R S T U V W X Y Z 0-9

Old Funk Bass Tabs – 311

CD, Sheet music, Poster

Do you like Old Funk? Share with your friends now
Bass TabsTabs
Bassist: P-Nut
Tuning: B-E-A-D-G 
Notes: 
      - Effected with an Envelope Filter

\ - Slide Down
x - Mute Note

Intro:
G|----------------------------------------------------------|
D|---------------------------------------------5-4--7-5--9--|
A|-----4--4-5-----4--4-2-------4---4-5--7--7-7--------------|
E|--0----------0---------4-0-0---0--------------------------|
B|----------------------------------------------------------|

G|------------------------------------------|
D|------------------------------------------|
A|-----4--4-5-----4--4-2-------4---4-5--7\--|
E|--0----------0---------4-0-0---0----------|
B|------------------------------------------|


Verse:
G|----------------------------------------------------------|
D|---------------------------------------------5-4--7-5--9--|
A|-----4--4-5-----4--4-2-------4---4-5--7--7-7--------------|
E|--0----------0---------4-0-0---0--------------------------|
B|----------------------------------------------------------|

G|----------------------------------------------------|
D|----------------------------------------------------|
A|-----4--4-5-----4--4-2-------4---4-5--7\---5-4------|
E|--0----------0---------4-0-0---0---------------7-5--|
B|----------------------------------------------------|

G|----------------------------------------------------------|
D|---------------------------------------------5-4--7-5--9--|
A|-----4--4-5-----4--4-2-------4---4-5--7--7-7--------------|
E|--0----------0---------4-0-0---0--------------------------|
B|----------------------------------------------------------|

G|--------------------------------------------------------|
D|--------------------------------------------------------|
A|-----4--4-5-----4--4-2-------4---4-5--7\---5-4----------|
E|--0----------0---------4-0-0---0---------------7-5-4-5--|
B|--------------------------------------------------------|


Chorus:
G|-----------------------------------|
D|-----------------------------------|
A|------6-----8-------------8-8-7-5--|
E|--8-8----------------7-10----------|
B|--------x-6----8-8-8---------------|

G|----------------------------------------|
D|---------------------------9---10---12--|
A|------6--------------10-----------------|
E|--8-8--------------------7---8---10-----|
B|--------x-6-x--8-8-8--------------------|

G|--------------------------------------------------|
D|--------------------------------------------------|
A|------6-----8-------------------------------------|
E|--8-8--------------------------------------3-2-0--|
B|--------x-6----8--8-8-8-8-8-8-8-8-8-8\------------|


Verse:
G|----------------------------------------------------------|
D|---------------------------------------------5-4--7-5--9--|
A|-----4--4-5-----4--4-2-------4---4-5--7--7-7--------------|
E|--0----------0---------4-0-0---0--------------------------|
B|----------------------------------------------------------|

G|--------------------------------------------------------|
D|--------------------------------------------------------|
A|-----4--4-5-----4--4-2-------4---4-5--7\---5-4----------|
E|--0----------0---------4-0-0---0---------------7-5-4-5--|
B|--------------------------------------------------------|


Chorus:
G|-----------------------------------|
D|-----------------------------------|
A|------6-----8-------------8-8-7-5--|
E|--8-8----------------7-10----------|
B|--------x-6----8-8-8---------------|

G|----------------------------------------|
D|---------------------------9---10---12--|
A|------6--------------10-----------------|
E|--8-8--------------------7---8---10-----|
B|--------x-6-x--8-8-8--------------------|

G|----------------------------------------|
D|----------------------------------------|
A|------6-----8---------------------------|
E|--8-8-----------------------------------|
B|--------x-6----8--8-8-8-8-8-8-8-8-8-8\--|


Break:
G|-----------------------------------------------------------------|
D|-----------------------------------------------------------------|
A|--3---3---3---3---3---3---3---3----------------------------------|
E|-----------------------------------------------------------------|
B|---------------------------------1---1--1---1---1--1---1---1--1--|


Outro:
G|---------------------------------|
D|---------------------------------|
A|--x-7-7-5-5----------------------|
E|------------7-7---x-7-7----------|
B|------------------------7-7-5-5--| (x3)

G|---------------------------------------|
D|---------------------------------------|
A|--x-7-7-5-5----------------------------|
E|------------7-7---x-7-7-5-5-3-3-2-2-0--|
B|---------------------------------------|





Comments


Popular 311 tabs & chords
Can't Fade Me Bass Tabs
Grassroots Bass Tabs
Livin' & Rockin' 1 Bass Tabs
Peaceful Revolution 1 Bass Tabs
Prisoner 2 Bass Tabs
Random 2 Bass Tabs
Wake Your Mind Up 2 Bass Tabs
Transistor Chords
Borders Tabs
Sunset In July Ukulele


Song lyrics



↑ Back to top | Tablatures and chords are parodies/interpretations of the original songs. You may use it for private study, scholarship, research or language learning purposes only
© 2014 AZChords.com Contact us | Privacy policy | DMCA | Add/correct tabs | Request tabs | Top 50 tabs