» »

/0-9/311-tabs-28.html

»

Old Funk Tabs (ver.1)

Artists:  A B C D E F G H I J K L M N O P Q R S T U V W X Y Z # 

Old Funk Tabs (ver.1)

311
Rating:
0/5 (0 votes)

Tabs too difficult? Try these video lessons and learn fast.
                Tuning: standard
Notes: Tim's part

Intro:
e|--xxxx\\\--|
B|--xxxx\\\--|
G|-----------|
D|-----------|
A|-----------|
E|-----------|

Verse:
e|--12p10----10--10/12----12p10----10-/16-12----12p10----10-12--12\------------------------|
B|--------12--------------------12--------------------12-------------x-x-x-10-8-12-8-10----|
G|--------------------------------------------------------------------------------------9--|
D|-----------------------------------------------------------------------------------------|
A|-----------------------------------------------------------------------------------------|
E|-----------------------------------------------------------------------------------------|

e|--12p10----10--10/12----12p10----10-/16-12----12p10----10-12--12\--10-9--------|
B|--------12--------------------12--------------------12------------------12-10--|
G|-------------------------------------------------------------------------------|
D|-------------------------------------------------------------------------------|
A|-------------------------------------------------------------------------------|
E|-------------------------------------------------------------------------------|

Chorus:
e|--------------------------------------------------------------------------------|
B|---------13h15p13---------13h15p13---------13h15p13-13h15p13-13h15p13-13h15p13--|
G|--12-14----------14--12-14--------14--12-14-------------------------------------|
D|--------------------------------------------------------------------------------|
A|--------------------------------------------------------------------------------|
E|--------------------------------------------------------------------------------| (X3)

e|------------------------------------------------------------------------------------------|
B|---------13h15p13---------13h15p13-------------------------13-13-13-13-13-13-13-13-13\\---|
G|--12-14----------14--12-14--------14--12-12-12-12-12-12-12--------------------------------|
D|------------------------------------------------------------------------------------------|
A|------------------------------------------------------------------------------------------|
E|------------------------------------------------------------------------------------------|

Break: I can't figure out the chord but this is the part leading up to the solo
        
e|--12-12-12-12-12-13-13-13-13-13-14-14-14-14-14-15-15-15-15-15--xxxx\\\--|
B|---------------------------------------------------------------xxxx\\\--|
G|------------------------------------------------------------------------|
D|------------------------------------------------------------------------|
A|------------------------------------------------------------------------|
E|------------------------------------------------------------------------|

Solo:
e|--------------------------------9-10-12-10-9------------------------------------|
B|-----------------------------12--------------12---------------------------------|
G|---------------------9-11-12--------------------12-11-9-------------------------|
D|-------------9-11-12------------------------------------12-11-9-11-12-11-12-9---|
A|-------10-12--------------------------------------------------------------------|
E|-12-12--------------------------------------------------------------------------|

e|---------------------------------|
B|---------------------------------|
G|---------------------------------|
D|--11----9------------------------|
A|-----12---10--12p11p10----10-9---|
E|-----------------------12--------|

e|-----------------------------------------------------------------------------11b12--|
B|-------------------------------------------------------12p10----10----11b12---------|
G|---------------------9-11-11-------9-9-----------------------12----12---------------|
D|-------------9-11-12---------12-12-----11-11--12-11-9-------------------------------|
A|--10-9-10-12------------------------------------------------------------------------|
E|------------------------------------------------------------------------------------|

e|--15--15p12---15p12---15p12---15p12---15p12---15p12---15p12---15p12---15\\\--|
B|-----------12------12------12------12------12------12------12------12--------|
G|-----------------------------------------------------------------------------|
D|-----------------------------------------------------------------------------|
A|-----------------------------------------------------------------------------|
E|-----------------------------------------------------------------------------|

Song Structure:
--> Bass intro
--> Intro
--> Verse X2
--> Chorus
--> Verse
--> Chorus
--> Break
--> Solo
            
Tabs too difficult? Try these video lessons and learn fast.


comments powered by Disqus
↑ Back to top | Tablatures and chords are parodies/interpretations of the original songs. You may use it for private study, scholarship, research or language learning purposes only