» »

/0-9/311-tabs-28.html

»

My Stoney Baby Bass tabs (ver.1)

Artists:  A B C D E F G H I J K L M N O P Q R S T U V W X Y Z # 

My Stoney Baby Bass tabs (ver.1)

311
Rating:
0/5 (0 votes)

Hard to play? Try these video lessons and learn fast.
                (1)
'My Stoney Baby' -- Bass Tab
Performed by 311
Music by:  N. Hexum
Lyrics by:  N. Hexum & D. Martinez
(c) 1993 Allegiance Music/Hydroponic Music BMI
---------------

There's a whole bunch of slap licks in this song. I think
I tabbed them okay. If anyone knows how to tab slap Bass

Verse A:

1:-------------
2:-3-----------
3:---0-1-2-3-3-
4:-------------


Verse B:

1:---------
2:-----1-2-
3:---3-----
4:-1-------


Fill A:

1:---------
2:-3-------
3:---0-1-2-
4:---------


Bridge:

1:---------
2:-1-0-----
3:-----1---
4:-------1-


Fill B:

1:------------10-------------
2:-----3---10----------0-----
3:---3---8---------1-3---3-1-
4:-1-------------3-----------


Fill C:

1:------------------------------------
2:------------------------------------
3:-3-3-3-3-3-3-3-3-3-3-5-6------6-7-8-
4:------------------------------------


Pre Chours A:

1:-----------------------
2:---3-----3-----3---1-2-
3:-----0h1---1h2---3-----
4:-1---------------------


Pre Chorus B:

1:--------------
2:--------------
3:-3-------////-
4:--------------


Chorus:

1:-------------------------
2:-----0---------0---------
3:-1-3---1---1-3---1-1-1-1-
4:---------3---------------


Fill D:

1:-0-----0-0------
2:---3-0--------3-
3:----------------
4:----------------


End:
====

1:---
2:---
3:---
4:-1-


Song Structure:
Guitar Intro
Verse A (x1) (0:08)
Verse B (x3) \
              >Verse X3
Verse A (x1) /
Bridge (x4)
Verse B (x1)
Fill A (x1) 
Fill B (x1) (0:56)
Fill C (x1)
Pre-Chorus A (x8)
Pre-Chorus B (x1)
Pre-Chorus A (x2)
Chorus (x3.5)
Fill D (x1)
Verse (x2) (2:01)
Bridge (x4)
Verse B (x1)
Fill A (x1)
Fill B (x1)
Fill C (x1)
Pre-Chorus A (x8) (2:51)
Pre-Chorus B (x1)
Pre-Chorus A (x1.5)
Chorus (x3.5)
Fill D (x1)
End (x1) (3:42)


== Last Updated:  August 7, 1997 ==
            
Hard to play? Try these video lessons and learn fast. | Correct




comments powered by Disqus
↑ Back to top | Tablatures and chords are parodies/interpretations of the original songs. You may use it for private study, scholarship, research or language learning purposes only