» »

/0-9/311-tabs-28.html

»

311, My Stoney Baby Tabs (ver.1)

Artists:  A B C D E F G H I J K L M N O P Q R S T U V W X Y Z # 

My Stoney Baby Tabs (ver.1)

311 Tabs
 Rating:
4/5 (4 votes)
My Stoney Baby lessons Tabs too difficult? Try these video lessons and learn fast
1
                'My Stoney Baby'
Performed by 311
Music by:  N. Hexum
Lyrics by:  N. Hexum & D. Martinez
(c) 1993 Allegiance Music/Hydroponic Music BMI
---------------


Riff 1 (Clean):
   N.C.
1:---------------------------------------------------------------------
2:---------------------------------------------------------------------
3:---------------------------------------------------------------------
4:-----------7-8--------------------------------6-7--------------------
5:-6-8-8-8-6-----8-6-8--8-8--6-6--6--6-8-8-8-6-----6-8--8--------------
6:---------------------------------------------------------5-6-7-8-8-8-

Riff 2 (Clean):
   A#7
1:-6--6--6--6--6-6-
2:-9--9--9--9--9-9-
3:-7--7--7--7--7-7-
4:-6--6--6--6--6-6-
5:-8--8--8--8--8-8-
6:-6--6--6--6--6-6-

Riff 3 (Clean):
   N.C.                                  Dm7 F#aug
1:---------------------------------------5///10-10-10-10-
2:---------------------------------------6///10-10-10-10-
3:---------------------------------------5///11-11-11-11-         
4:---------7-8---------------------------7---------------
5:-6-8-8-8-----8-6-8-8-8-6-6-6-6-8-8-8---5---------------
6:-------------------------------------------------------

Riff 4 (Clean):
   C                              D   D#     D#/A# E/B F/C
1:--8--8--8--8--8---8--8--8--8--8-10--11------------------
2:--8--8--8--8--8---8--8--8--8--8-10--11-----8-----9---10-
3:--9--9--9--9--9---9--9--9--9--9-11--12-----8-----9---10-
4:-10-10-10-10-10--10-10-10-10-10-12--13-----8-----9---10-
5:-10-10-10-10-10--10-10-10-10-10-12--13-----6-----7----8-
6:--8--8--8--8--8---8--8--8--8--8-10--11-----6-----7----8-

Riff 5 (Clean):
   D#6       G5(addEb) D#6
1:-8---8---8--10---10--8-
2:-8---8---8---8----8--8-
3:-8---8---8---8----8--8-
4:-----------------------
5:-----------------------
6:-----------------------

Chorus (Clean):
   Bb
1:-6--6--6--6--6-6-
2:-6--6--6--6--6-6-
3:-7--7--7--7--7-7-
4:-8--8--8--8--8-8-
5:-8--8--8--8--8-8-
6:-6--6--6--6--6-6-

Solo:
   N.C.
1:-----------------------------------------------------------------------
2:----------10h11-—13-10----10--------------------------------------------
3:-10h11h12--------------12----12-10-12-10----10-------12p10----10-------
4:-----------------------------------------12----12-10-------12----10h12-
5:-----------------------------------------------------------------------
6:-----------------------------------------------------------------------

   N.C.
1:----------------------------------------------------------------------
2:-------------------------------------------------------10-10-13-10----
3:-------------10-------------10----------------10-10-12-------------12-
4:-12-12-12-12----12-10h12-12----10-10-10h11h12-------------------------
5:----------------------------------------------------------------------
6:----------------------------------------------------------------------

   N.C.
1:----------------------------------------------------------------------
2:----------------------------------------10----------------------------
3:-10-12-10----10-12-12-12-12----12-10-12----12-10-12-10----10----------
4:----------12----------------12-------------------------12----12-10-12-
5:----------------------------------------------------------------------
6:----------------------------------------------------------------------

   N.C.
1:-------------------------------------------
2:-------------------------------------------
3:-------10-------------12-10-12p10----10-10-
4:-10-12----12-10-10-12-------------12-------
5:-------------------------------------------
6:-------------------------------------------


Lyrics/Song Structure:
---> Play Riff 1 (x2)
---> Play Riff 1 over:
   The fish who keeps on swimming, is the first to chill upstream
   I want your fish right by me, That's how it has to be
---> Play Riff 2 over:
   The songs I sing they don't mean a thing
   If you're not there to hear it but then
---> Play Riff 1 over:
   Soon is the time, you'll be by my side
---> Play Riff 3
---> Play Riff 4 over:
   It's copesetic if you let it so set up and keep the
   Down stream down and the up stream up
---> Play Riff 5 over:
   Girlfriend boots & all you're looking fresh again
   Move toward me so I can smell the sweetness of your flesh ***
   Cool down your fine self when I 
   Find my way to the wetness of your sweet mouth
   Sweetly in every way that you treat me
   A fish story but you know it's picture perfect
   Our morning glory every time that we wake
   The morning ride is the longest ride take it
---> No guitar over:
  _/Nick: Like this take it like that take a yin and a yang
   \S.A.: It's time to find the kind, titillate the flow 
  _/Nick: Like my man jack sprat go down forever it's wetter
   \S.A.: Swimmin' and Hummin' w/ a body and a soul
---> Play Riff 5 over:
  _/Nick: Yo, ***, whatever
   \S.A.: It's time to find the kind, titillate the flow 
  _/Nick: It's better         , can't say it any better
   \S.A.: Swimmin' and Hummin', can't say it any better
---> Play Chorus/Solo over:
   My Stoney Baby, My Stoney Baby
---> Play Riff 1 over:
   And now I'm here with my friend Ruskie
   In their house but they're not home
   If they find out what's been on
   They'll kick us out and we'll be gone
   No pool and that's not too cool
---> Play Riff 2 over:
   The songs I sing they don't mean a thing
   If you're not there to hear it but then
---> Play Riff 1 over:
   Soon is the time, you'll be by my side
---> Play Riff 3
---> Play Riff 4 over:
   It's copesetic if you let it so set up and keep the
   Down stream down and the up stream up
---> Play Riff 5 over:
   My stoney, my baby, swings w/ the groovin'
   Funk the groovin' thang whistlin'
   As I rip my rhymes
   Time and time again struttin'
   And in the summertime
   So screw it, strip down and be generic
   Strip down and be a passenger strip down and be a messenger
   In askin' why I'm born, I come up blank in the winter
   In askin' why I'm born, I come up on when I'm on her
---> No guitar over:
  _/Nick: My summer, his summer
   \S.A.: It's time to find the kind, titillate the flow
  _/Nick: It could be one to go down
   \S.A.: Swimmin' and hummin' with a body and a soul
---> Play Riff 5 over:
  _/Nick: to go down, forever
   \S.A.: It's time to find the kind, titillate the flow 
  _/Nick: Together            , and then I kiss
   \S.A.: Swimmin' and Hummin', and then I kiss
---> Play Chorus/Solo(w/improv) over:
   My Stoney Baby, My Stoney Baby
   My Stoney Baby, My Stoney Baby
            
Submit corrections

comments powered by Disqus
↑ Back to top | 311 Tabs for My Stoney Baby. Lyrics for acoustic guitar and electric guitar. 1 Tablatures and chords are parodies/interpretations of the original songs. You may use it for private study, scholarship, research or language learning purposes only