>
 >
 >
Mix It Up

Mix It Up Guitar Tabs

311 - Mix It Up chords, tabs, tablatures, lyrics

Guitar lessons | Add/correct | Request | Top 50 tabs Artists:  A B C D E F G H I J K L M N O P Q R S T U V W X Y Z 0-9

Mix It Up Guitar Tabs – 311

CD, Sheet music, Poster

Do you like Mix It Up? Share with your friends now
Tabs
311 - "Mix It Up"
Standard Tuning

Please Rate and comment on this tab.

Intro:

play 3x                                              Ending:
e|------------------------------------0-----|       |---------------------------|
B|------------------------------------0-----|       |---------------------------|
G|----------------------5-------------1-----|       |---------------------------|
D|-6--6--6--6--6--6--6--6----2--2--2--2-----|       |--6--------4-------4-------|
A|-6--6--6--6--6--6--6--6----2--2--2--2-----|       |--6--------6-------6-------|
E|-4--4--4--4--4--4--4--4----0--0--0--0-----|       |--4--------4-------4-------|



Verse - play 12x, some times note in () is not played 
e|----------------------------------------|
B|----------------------------------------|
G|----------------------------------------|
D|----------------------------------------|
A|----------------------------------------|
E|-4--4-(4)-6--4--4----4--4--4--4--4----4-|



Prechorus - Play Verse 4x with distortion, 

then use wah and play this 2x:
   o       o  o        o        +o        etc
e|-----------------------------------|----------------------------------------|
B|-----------------------------------|----------------------------------------|
G|-----------------------------------|----------------------------------------|
D|-----------------------------------|----------------------------------------|
A|-----------------------------------|----------------------------------------|
E|-4-------4--4--------4--------4----|----4-------4--4--------4--------4------|



Chorus - 

play 3x                                         Ending - play 2x                  
e|---------------------------------------|     -------------------------------|
B|---------------------------------------|     -------------------------------|
G|-4--4--4--4--4--4----------------------|     -------------------------------|
D|-4--4--4--4--4--4----6----6--6----6----|     --4-------4-------4------------|
A|-2--2--2--2--2--2----6----6--6----6----|     --4-------4-------4------------|
E|-2--2--2--2--2--2----4----4--4----4----|     --2-------2-------2------------|


After Chorus ending, Rhythm plays this into next bar:
e|----------------|
B|----------------|
G|----------------|
D|-6--------------|
A|-6--------------|
E|-4--------------|

Rhythm Guitar then starts playing verse riff again


Lead plays (at 1:33, the first note overlaps the end of the Chorus)
e|-----------|----------------------|---------------------|--------------------|
B|-----------|----------------------|---------------------|--------------------|
G|---6-------|----------------------|---------------------|--------------------|
D|-----------|---10-------10--8--6--|-8---10-6-------8p6--|-8/10------10--8--6-|
A|-----------|----------------------|---------------------|--------------------|
E|-----------|----------------------|---------------------|--------------------|

e|-----------------------------|-----------------|
B|-----------------------------|-----------------|
G|-----------------------------|-----------------|
D|-8---10-6--------4h6p4p3-4-3-|-----------------|
A|-----------------------------|-4-3-------------|
E|-----------------------------|-----------------|
 Note that Tim Mahoney plays this with an octave pedal that adds a note 1 octave lower.




Play Verse Riff again, but add additional guitar at the end of Tim's part (1:47)
e|----------------------|----------------------|---------------------|--------|
B|------12--------------|------12-----------14-|------12----------11-|--------|
G|-13--------11---------|-13--------11---------|-13--------11--------|-13-----|
D|----------------------|----------------------|---------------------|--------|
A|----------------------|----------------------|---------------------|--------|
E|----------------------|----------------------|---------------------|--------|
   * Effects: Use fast delay setting 




Play Prechorus Distorted part

Play Chorus to end song



KEY:
| /  slide up
| \  slide down
| h  hammer-on
| p  pull-off
| ~  vibrato
| +  harmonic
| x  Mute note





Comments


Popular 311 tabs & chords
Eons 2 Bass Tabs
Love Song Bass Tabs
Nutsymptom Bass Tabs
Use Of Time 2 Bass Tabs
Champagne Tabs
Hive Tabs
Love Song 5 Tabs
Taiyed Tabs
Transistor 2 Tabs
Wandering Around Tabs


Song lyrics



↑ Back to top | Tablatures and chords are parodies/interpretations of the original songs. You may use it for private study, scholarship, research or language learning purposes only
© 2014 AZChords.com Contact us | Privacy policy | DMCA | Add/correct tabs | Request tabs | Top 50 tabs