» »

/0-9/311-tabs-28.html

»

Loco Tabs (ver.1)

Artists:  A B C D E F G H I J K L M N O P Q R S T U V W X Y Z # 

Loco Tabs (ver.1)

311
Rating:
0/5 (0 votes)

Hard to play? Try these video lessons and learn fast.
                Standard Tuning - eBGDAE

Although this tab looks --> Extremely <-- simple, its not.
This song is very difficult to play if you're just starting.
You need to be able to move very speedily, and fluently among
your frets if you want to be successful with this song.

intro:
|-------------------------|
|-------------------------|
|-------------------------|
|-------------------------|
|------------4-----4-2--4-|
|-0-1-2--2-5---2-5--------|  

|-------------------------|
|-------------------------|
|-------------------------|
|-------------------------|
|-------------------------|
|------------4-----4-2--2-|
|-0-1-2--2-5---2-5--------|


Chorus:
|--------------------------|
|--------------------------|
|--------------------------|
|--------------------------|
|--------------------------|
|-------2-4-2--------------|
|-0-2-4-------4-0-2-0-2-4-2|

|--------------------------|
|--------------------------|
|--------------------------|
|--------------------------|
|--------------------------|
|-------2-4-2--------------|
|-0-2-4-------4-0-2-0-2-4-2|


Bridge:
|--------------------------|
|--------------------------|
|--------------------------|
|--------------------------|
|-------------------4------|
|--------4---0-1-2--2------|
|-0-1-2--2-----------------|

|--------------------------|
|--------------------------|
|--------------------------|
|--------------------------|
|-------------------4------|
|--------4---0-1-2--2------|
|-0-1-2--2-----------------|
            
Hard to play? Try these video lessons and learn fast. | Correct




comments powered by Disqus
↑ Back to top | Tablatures and chords are parodies/interpretations of the original songs. You may use it for private study, scholarship, research or language learning purposes only