» »

/0-9/311-tabs-28.html

»

311, Life's Not A Race Bass tabs (ver.2)

Artists:  A B C D E F G H I J K L M N O P Q R S T U V W X Y Z # 

Life's Not A Race Bass tabs (ver.2)

311 Tabs
 Rating:
4/5 (4 votes)
Life's Not A Race lessons Tabs too difficult? Try these video lessons and learn fast
1
                Main:
g:--------------------|
d:--------------------|
a:--------------------|
e:3--3-3-3--3-3--3-3-3|
b:--------------------|

Chorus:
g:-------------------|
d:-------------------|
a:--------------3---2|
e:3--3-5-5--4-4---4--|
b:-------------------|

Main2:
g:-------------------|
d:-------------------|
a:-------------------|
e:3----3-3-----------|
b:---3-----1-1--1-3-1|

2nd pause SA solo:
g:--------------|
d:xx---x---x-x--|
a:---x---x-----x|
e:--------------|
b:--------------|

Guitar solo (end):
g;-----------|
d:--------5--|
a:--5---3---3|
e:3---3------|
b:-----------|

Sometimes:
g:-----------|
d:-----------|
a:--5--------|
e:3---3---3--|
b:------1---1|

End:
g:-----------------|
d:--------5--------|
a:--5---3----------|
e:3---3-----3---3\\|
b:-----------------|
            
Submit corrections

comments powered by Disqus
↑ Back to top | 311 Bass for Life's Not A Race. Lyrics for acoustic guitar and electric guitar. 1 Tablatures and chords are parodies/interpretations of the original songs. You may use it for private study, scholarship, research or language learning purposes only