» »

/0-9/311-tabs-28.html

»

311, Jackolanterns Weather Tabs (ver.1)

Artists:  A B C D E F G H I J K L M N O P Q R S T U V W X Y Z # 

Jackolanterns Weather Tabs (ver.1)

311 Tabs
 Rating:
4/5 (4 votes)
Jackolanterns Weather lessons Tabs too difficult? Try these video lessons and learn fast
1
                ++Standard Tuning++                              


--9-9-9-9---9-9-9-9---9-9---|--9-9-9-9---9-9-9-10-10-10-10-10-10--|
--8-8-8-8---8-8-8-8---8-8---|--8-8-8-8---8-8-8-8--8--8--8--8--8---|
--7-7-7-7---7-7-7-7---7-7---|--7-7-7-7---7-7-7-7--7--7--7--7--7---|
----------------------------|-------------------------------------|
----------------------------|-------------------------------------|
----------------------------|-------------------------------------|

                                                                   
|------------------------------|-----------------------------|
|------------------------------|-----------------------------|
|------------------------------|-----------------------------|
|------------------------------|-----------------------------|
|--------------5--3---3--3-2-0-|-------------5--3---3--3-2-0-|
|----3-5-3-5-3-----------------|---3-5-3-5-3-----------------|


                                                            
-----------------------------|-----------------------------|
-----------------------------|-----------------------------|
-----------------------------|-----------------------------|
-----------------------------|-----------------------------|
-------------5--3---3--3-2-0-|-------------5--3---3--3-2-0-|
---3-5-3-5-3-----------------|---3-5-3-5-3-----------------|


------------------------------|------------------------------|
------------------------------|------------------------------|
------------------------------|------------------------------|
------------------------------|------------------------------|
--5-0-5-7--7-5---0-5-7--7-5-0-|--5-0-5-7--7-5---0-5-7--7-5-0-|
------------------------------|------------------------------|


                                                               
------------------------------|------------------------------||
------------------------------|------------------------------||
------------------------------|------------------------------||
------------------------------|------------------------------||
--5-0-5-7--7-5---0-5-7--7-5-0-|--5-0-5-7--7-5---0-5-7--7-5---||
------------------------------|------------------------------||

                                                            
------------------------------|----------------------------|
------------------------------|----------------------------|
------------------------------|----------------------------|
------------------------------|----------------------------|
-----------------4-4---4------|-----------------4-4---4~---|
--4-4-4-5--6--7------7---7-4--|--4-4-4-5--6--7------7------|


                                                            
------------------------------|----------------------------|
------------------------------|----------------------------|
------------------------------|----------------------------|
------------------------------|----------------------------|
-----------------4-4---4------|----------------------------|
--4-4-4-5--6--7------7---7-4--|--4-4-4-5--6--7--0--0--0--0-|


                                                            
------------------------------|----------------------------|
------------------------------|----------------------------|
------------------------------|----------------------------|
------------------------------|----------------------------|
-----------------4-4---4------|-----------------4-4---4----|
--4-4-4-5--6--7------7---7-4--|--4-4-4-5--6--7------7------|


                                                           
------------------------------|---------------------------|
------------------------------|---------------------------|
------------------------------|---------------------------|
------------------------------|---------------------------|
-----------------4-4---4------|---------------------------|
--4-4-4-5--6--7------7---7-4--|--4-4-4-5--6--7--0--0--0---|


                                                                   
|-----------------------------|----------------------------|
|-----------------------------|----------------------------|
|-----------------------------|----------------------------|
|-----------------------------|----------------------------|
|-----------------------------|----------------------------|
|---5--5----5-5-3-2-3--3-2-3--|--5--5----5-5-3-2-3--3-2-3--|


                                                           
----------------------------|----------------------------||
----------------------------|----------------------------||
----------------------------|----------------------------||
----------------------------|-----------------2------4---||
----------------------------|---------------3------5-----||
--5--5----5-5-3-2-3--3-2-3--|--5--5----5--3------5-------||


                                                       
---------------------------|---------------------------||
---------------------------|---------------------------||
---------------------------|---------------------------||
---------------------------|---------------------------||
---4--------4--------4-----|--4--------4--------4--5---||
------2--2-----2--2-----2--|-----2--2-----2--2---------||


                                                                          
--------------------------|--------------------------||
--------------------------|--------------------------||
--------------------------|--------------------------||
--------------------------|--------------------------||
--4--------4--------4-----|--4--------4--------4--2--||
-----2--2-----2--2-----2--|-----2--2-----2--2-----3--||
            
Submit corrections

comments powered by Disqus
↑ Back to top | 311 Tabs for Jackolanterns Weather. Lyrics for acoustic guitar and electric guitar. 1 Tablatures and chords are parodies/interpretations of the original songs. You may use it for private study, scholarship, research or language learning purposes only