» »

/0-9/311-tabs-28.html

»

311, Its Getting Okay Now Tabs (ver.1)

Artists:  A B C D E F G H I J K L M N O P Q R S T U V W X Y Z # 

Its Getting Okay Now Tabs (ver.1)

311 Tabs
 Rating:
4/5 (4 votes)
Its Getting Okay Now lessons Tabs too difficult? Try these video lessons and learn fast
1
                -------------------------------------------------------------------------------
                     It's Getting Okay Now - 311
-------------------------------------------------------------------------------

Tuning: EADGBE

 Intro [Distortion w/ Octave pedal]                        
e|---------------------------------------------------------|
B|---------------------------------------------------------|
G|---------------------------------------------------------|
D|---------------------------------------------------------|
A|----------------7-7-7-7-7------------------7-7-7-7-7-----|
E|-5--0-5-8-5-8\------------8\-5--0-5-8-5-8\------------8\-|

 Riff 1 (x2) [Dist. w/ oct pdl]
e|-----------------------------------------------------|
B|-----------------------------------------------------|
G|-----------------------------------------------------|
D|-----------------------------------------------------|
A|--------------7-7-7-7-7-----------------7-7-7-7-7----|
E|-5--5-8-5-8\------------8\-5--5-8-5-8\------------8\-|

 Riff 2 (x4) [Distortion]
e|------------------------------------------------------|
B|------------------------------------------------------|
G|------------------------------------------------------|
D|----7-7------5-5-0-------------7-7------5-5-0---------|
A|---------5h7-------4-4--------------5h7-------4-4-----|
E|-5----------------------5p3-5---------------------5\--|

 Riff 3 [Distortion]
e|--5--5------3----------------------------|      |--5--5------3--------|
B|--5--7------3----------------------------|      |--5--7------3--------|
G|--6--6----4-4--7-------------------4-----|      |--6--6----4-4--7-----|
D|--7-------5-5--7----------4-0h4h5h7-7-5--|<(x3) |--7-------5-5--7-----|
A|--7--7----5-5--5---0h4h5h7---------------|then> |--7--7----5-5--5-----|
E|--5--5----3-3--5-------------------------|      |--5--5----3-3--5-----|

Repeat Riff 1 (x2)
Repeat Riff 2 (x4)
Repeat Riff 3

 Riff 4 [Dist. w/ oct pdl]
e|---------------------------------------------------------------|
B|---------------------------------------------------------------|
G|---------------------------------------------------------------|
D|---------------------------------------------------------------|
A|-5-7----------------------------5-7----------------------------|
E|-----0-5-6-0-3-5-0-2-0-2-3-2-0------0-5-6-0-3~-0-2-0-2-3-2-0---|

e|---------------------------------------------------------------|
B|---------------------------------------------------------------|
G|---------------------------------------------------------------| 
D|---------------------------------------------------------------| (x3)
A|-5-7----------------------------5-7----------------------------|
E|-----0-5-6-0-3-5-0-2-0-2-3-2-0------0-5-6-0-3*-0-2-0-2-3-2-0---|
                                               * = pinch harmonic
Repeat Riff 3
Repeat Riff 1 (x2)

 End on
e|------|
B|------|
G|------|
D|------|
A|------|
E|-5\\--|


******************
| /  slide up
| \  slide down
| h  hammer-on
| p  pull-off
| ~  vibrato
******************
            
Submit corrections

comments powered by Disqus
↑ Back to top | 311 Tabs for Its Getting Okay Now. Lyrics for acoustic guitar and electric guitar. 1 Tablatures and chords are parodies/interpretations of the original songs. You may use it for private study, scholarship, research or language learning purposes only