>
 >
 >
Its Alright

Its Alright Bass Tabs

311 - Its Alright chords, tabs, tablatures, lyrics

Guitar lessons | Add/correct | Request | Top 50 tabs Artists:  A B C D E F G H I J K L M N O P Q R S T U V W X Y Z 0-9

Its Alright Bass Tabs – 311

CD, Sheet music, Poster

Do you like Its Alright? Share with your friends now
Bass TabsTabsTabs v2
311 - Its Alright
5-String Bass down 1 fret (Bb,Eb,Ab,Db,Gb)


Main Riff (all eighth notes, played without ringing)

  (0:07-0:49)
Gb|-----------------------|---------------------|
Db|-----------------------|---------------------|
Ab|-----------------------|---------------------|
Eb|-5----5----5--5-----2--|---2----2--2----2----|
Bb|-----------------------|---------------------|

|-----------------------|---------------------|
|-----------------------|---------------------|
|-----------------------|---------------------|
|-5----5----5--5-----2--|---2----2--2----2----|
|-----------------------|---------------------|

|-----------------------|---------------------|
|-----------------------|---------------------|
|-5----5----5--5-----2--|---2----2--2----2----|
|-----------------------|---------------------|
|-----------------------|---------------------|

|-----------------------|---------------------|
|-----------------------|---------------------|
|-5----5----5--5-----2--|---2---------2--2----| <- sometimes the final
|-----------------------|---------------------|    bar has a diffferent
|-----------------------|---------------------|    rhythm, not always




Chorus, including bar before (starts at 0:49)

|-------------------------|-----------------------|-----------------------|
|-------------------------|-----------------------|-----------------------|
|-2--2--2--2--2--2--2--2--|-----------------------|-----------------------|
|-------------------------|-5----5----5--0--5--2--|---2----0--2--0--2--0--|
|-------------------------|-----------------------|-----------------------|
                         "Its Al_________________right

|-----------------------|------------------------|-----------------------|
|-----------------------|------------------------|-----------------------|
|-----------------------|------------------------|-----------------------|
|--------------------3--|----3----3--3--0--3--0--|-5----5----5--0--5--2--|
|-3----3----3--5--3-----|------------------------|-----------------------|
 "Wherever you are right now                Its Al_________________"

|-----------------------|-------------------------|-------------------------|
|-----------------------|-------------------------|-------------------------|
|-----------------------|-------------------------|-------------------------|
|---2----0--2--0--2--0--|-3--3--3--3--3--3--3--3--|-3--3--3--3--3--3--3--3--|
|-----------------------|-------------------------|-------------------------|
"_right                  That's where you're suppose to be now."



Play Main Riff again


Play Chorus again, and add on this to ending:

|-------------------------|-------------------------|-----------|------------|
|-------------------------|-------------------------|-----------|------------|
|-------------------------|-------------------------|-----------|------------|
|-3--3--3--3--3--3--3--3--|-3--3--3--3--3--3--3--3--|-2---------|-(2)--------|
|-------------------------|-------------------------|-----------|------------|
"That's where you're suppose to be now____________________"




Slap Bass Solo (Sixteenth Note Rhythms)

|----------------14--14----------|----------------14------------|
|--11h12-------------------------|--11h12-----------------------|
|-------12p0-12p0--------12-0h12-|-------12p0-12p0---0h12-0h12--|
|--------------------------------|------------------------------|
|--------------------------------|------------------------------|
   s     s    s  p   p   s  s       s     s    s  p   s   s


|----------------14--14----------|----------------14------------|
|--11h12-------------------------|--11h12-----------------------|
|-------12p0-12p0--------12-0h12-|-------12p0-12p0---0h12-0h12\-|
|--------------------------------|------------------------------|
|--------------------------------|------------------------------|
   s     s    s  P   P   s  s       s     s    s  P   s   s


|-----------------------|------4-4------4-4------|
|--4h5-------7-7--------|------------------------|
|-----5p0-5p0----5--5p0-|-2--2-----2--2-----2----|
|-----------------------|------------------------|
|-----------------------|------------------------|
   s  s   s  P P s  s     s  s P P s  s P P s


|-----------------------|------4-4------4-4------|
|--4h5-------7-7--------|------------------------|
|-----5p0-5p0----5--5p0-|-2--2-----2--2-----2/---|
|-----------------------|------------------------|
|-----------------------|------------------------|
   s  s   s  P P s  s     s  s P P s  s P P s




Play First Chorus 2x then add on the Second Chorus Ending to end song



KEY
| /  slide up
| \  slide down
| h  hammer-on
| p  pull-off
| s  slap
| P  pop (when on line below tab)
| x  Mute note





Comments


Popular 311 tabs & chords
Beautiful Disaster 3 Bass Tabs
How Do You Feel Bass Tabs
Offbeat Bare Ass 4 Bass Tabs
Running Bass Tabs
Sick Tight Bass Tabs
Starshines 1 Bass Tabs
Dlmd 1 Tabs
Getting Through To Her Tabs
Plain Tabs
Weightless Tabs


Song lyrics



↑ Back to top | Tablatures and chords are parodies/interpretations of the original songs. You may use it for private study, scholarship, research or language learning purposes only
© 2014 AZChords.com Contact us | Privacy policy | DMCA | Add/correct tabs | Request tabs | Top 50 tabs