» »

/0-9/311-tabs-28.html

»

311, Its Alright Tabs (ver.1)

Artists:  A B C D E F G H I J K L M N O P Q R S T U V W X Y Z # 

Its Alright Tabs (ver.1)

311 Tabs
Rating:
0/5 (0 votes)
Hard to play? Try these video lessons and learn fast.
                311 - "It's Alright"
Eb Tuning (all strings down 1 fret)

I was suprised to learn that 311 finally did a song in a different tuning, 
since their catalog is mostly in standard. I got the chord positions from 


Intro Riff (starting 0:07) - some ad-lib is used

  Nick (hollowbody w/ piezo)
eb|------------------------|----------------------|
Bb|------------------------|----------------------|
Gb|-/6--6--6----6----6--4--|----4----2--2----2----|
Db|-/7--7--7----7----7--6--|----6----4--4----4----|
Ab|------------------------|----------------------|
Eb|------------------------|----------------------|
  |
  |Tim (Electric 2)
eb|--------5--5------5--5--|------2--2-------2--2--|
Bb|--------5--5------5--5--|------2--2-------2--2--|
Gb|--------6--6------6--6--|------2--2-------2--2--| play both
Db|--------7--7------7--7--|------4--4-------4--4--| lines 2x
Ab|------------------------|-----------------------|
Eb|------------------------|-----------------------|
           Ab                     Fm


Continue:

  Nick
|----------------------------|------------------------|
|----------------------------|------------------------|
|-/11-11-11-----11----11--9--|----9-----7--7----7-----|
|-/12-12-12-----12----12--11-|----11----9--9----9-----|
|----------------------------|------------------------|
|----------------------------|------------------------|
|
| Tim
|--------10--10-------10--10-|-------7--7-------7--7--|
|--------10--10-------10--10-|-------7--7-------7--7--|
|--------11--11-------11--11-|-------7--7-------7--7--| play both 
|--------12--12-------12--12-|-------9--9-------9--9--| lines 2x
|----------------------------|------------------------|
|----------------------------|------------------------|
         Db                          Bbm



Verse - Play Tim's Intro part only. 

Lyrics:
"Stay with me, 
Here with me. 
Right in this instance. 
Not in the distance. 
Your head is off in future time. 
That's when things get out of line. 
Taking in this moment, 
your time is so well spent. 



Chorus - Both Guitars (Dist)
|-----------------------|-----------------------|-----------------------|
|-----------------------|-----------------------|-----------------------|
|-----------------------|-----------------------|-----------------------|
|-7----7----7-----7--4--|---4----4--4-----4-----|-7----7-------------5--|
|-7----7----7-----7--4--|---4----4--4-----4-----|-5----5----5--7--5--5--|
|-5----5----5--0--5--2--|---2----2--2--0--2--0--|-5----5----5--5--5--3--|

"Its Alright,                                   Wherever you are right"



|-----------------------|-----------------------|-----------------------|
|-----------------------|-----------------------|-----------------------|
|-----------------------|-----------------------|-----------------------|
|---5----5--5-----5-----|-7----7----7-----7--4--|---4----4--4-----4-----|
|---5----5--5-----5-----|-7----7----7-----7--4--|---4----4--4-----4-----|
|---3----3--3--0--3--0--|-5----5----5--0--5--2--|---2----2--2--0--2--0--|

" now.                   It's alright " 

  
|-------------------------|-------------------------|
|-slight PM's-------------|-------------------------|
|-------------------------|-------------------------|
|-5--5--5--5--5--5--5--5--|-5--5--5--5--5--5--5--5--|
|-5--5--5--5--5--5--5--5--|-5--5--5--5--5--5--5--5--|
|-3--3--3--3--3--3--3--3--|-3--3--3--3--3--3--3--3--|

 "That's where you're suppose to be now."





Verse 2 - Same as before, lyrics are:

"Stay with me. 
Here with me. 
Right in this instance. 
Not in the distance. 

Standing at a crossroads, I was at a loss 
Those temporary moments, pleasures that are stolen. 
Here in the present 
You're time is so well spent."







Chorus 2 - Play the same Riff but add this ending on:

 Guitar 1 (Nick) 
|-------------------------|-------------------------|---------------|
|-slight PM's-------------|-------------------------|---------------|
|-------------------------|-------------------------|---------------|
|-5--5--5--5--5--5--5--5--|-5--5--5--5--5--5--5--5--|-4-------------|
|-5--5--5--5--5--5--5--5--|-5--5--5--5--5--5--5--5--|-4-------------|
|-3--3--3--3--3--3--3--3--|-3--3--3--3--3--3--3--3--|-2-------------|

"That's  where    you're   suppose  to be now____________."

Guitar 2 does pick scr*pes during this Chorus 2 ending.







Slap Bass Solo - Guitar Part (play 3x with bass solo repeats)

*note lengths are indicated

    s e   s e   q     e   e     e   s  e  s  e  q     e   e
|-----------------------------|-------------------------------|
|-----------------------------|-----------------17------------|
|-----18--------19----18------|-------18--------------19--18--|
|---19----19--------------19--|-----19----19------------------|
|-----------19----------------|-19----------19----------------|
|-----------------------------|-------------------------------|

  e   s e   s e   q     e   e     e   s  e  s  e  e   e   q
|-------------------------------|-------------------------------|
|-------------------------------|-------------------------------|
|-------18--------19----18------|-------18--------16------------|
|-19--19----19--------------19--|-----19----19------------19----|
|-------------19----------------|-19----------19------19--------|
|-------------------------------|-------------------------------|

  e  s e  s e  e  e  e  e    e  s e  s e  e  e  q
|--------------------------|--------------7-----------|
|------7-------8-----7-----|------7-------------10----|
|----7----7-------------7--|----7----7----------------| play this line 2x
|-7---------7-----7--------|-9---------9-----9--------| then do repeats
|--------------------------|--------------------------|
|--------------------------|--------------------------|

NOTES:
s = sixteenth
e = eighth
q = quarter




Final Chorus (2:50) - Play First Chorus, then repeat it like the 
second chorus was with the extended ending. The final chord is

Ending:
|---------------|
|---------------|
|---------------|
|-4-------------|
|-4-------------|
|-2-------------|



key
| /   slide up
| \   slide down
| h   hammer-on
| p   pull-off
| ~   vibrato
| PM  palm mute
            

comments powered by Disqus
↑ Back to top | 311 Tabs for Its Alright. Lyrics for acoustic guitar and electric guitar. Tablatures and chords are parodies/interpretations of the original songs. You may use it for private study, scholarship, research or language learning purposes only