» »

/0-9/311-tabs-28.html

»

311, Intro Tabs (ver.1)

Artists:  A B C D E F G H I J K L M N O P Q R S T U V W X Y Z # 

Intro Tabs (ver.1)

311 Tabs
Rating:
0/5 (0 votes)
Intro lessons Tabs too difficult? Try these video lessons and learn fast
                "'intro'
performed by 311
music by: hexum, s.a, sexton, miT, p-nut
---------------
this song can only be found by rewinding the song "transistor"
tuning(EADGBe)

riff 1
=======
1:----------------    1:----------------------|
2:----------------    2:----------------------|
3:----------------    3:----------------------|
4:-7---9---10----- x4 4:-7---9---10-10-10-10--| x4
5:-5---7----8-----    5:-5---7----8--8--8--8--|
6:-5---7----8-----    6:-5---7----8--8--8--8--|

riff 2
=======
1:-------------------|
2:-------------------|
3:-------------------|
4:--7-5-xx-7-xx-7-xx-|
5:--7-5-xx-5-xx-5-xx-|
6:--5-3-xx-5-xx-5-xx-|

riff 3
=======
1:----------------------------|
2:----------------------------|
3:----------------------------|
4:-4-4-4-4-4-4--2-2-2-2-2-2---|
5:-2-2-2-2-2-2--2-2-2-2-2-2---|
6:-2-2-2-2-2-2--0-0-0-0-0-0---|

solo
======
1:--16-17-14-16----14----------------------------------------|
2:--------------17----15-17-14-15----14----------------------|
3:--------------------------------16----14-16-13-14-13-14-13-|
4:-----------------------------------------------------------|
5:-----------------------------------------------------------|
6:-----------------------------------------------------------|

1:---------------------------------------------------------------|
2:---------------------------------------------------------------|
3:---------------------------------------------------11-13-14-16-|
4:--14-12-11--11-12-11----------------14-12-11-12-14-------------|
5:---------------------12-11///14--11----------------------------|
6:---------------------------------------------------------------|

1:----------14----------------14-16-17-17//19-14-16-17-16-19-17-|
2:-14-15-17----17-15-14h15h17-----------------------------------|
3:--------------------------------------------------------------|
4:--------------------------------------------------------------|
5:--------------------------------------------------------------|
6:--------------------------------------------------------------|

1:-16-14-17-16-14-12-16-14-12-10-14-12-10-9-10-12-14-10-12-14-16-|
2:---------------------------------------------------------------|
3:---------------------------------------------------------------|
4:---------------------------------------------------------------|
5:---------------------------------------------------------------|
6:---------------------------------------------------------------|

1:-17-19~--------------------------------------------------------|
2:---------------------------------------------------------------|
3:---------------------------------------------------------------|
4:---------------------------------------------------------------|
5:---------------------------------------------------------------|
6:---------------------------------------------------------------|

listen to song for structure
"            

comments powered by Disqus
↑ Back to top | 311 Tabs for Intro. Lyrics for acoustic guitar and electric guitar. Tablatures and chords are parodies/interpretations of the original songs. You may use it for private study, scholarship, research or language learning purposes only