» »

/0-9/311-tabs-28.html

»

I'll Be Here A While Tabs (ver.1)

Artists:  A B C D E F G H I J K L M N O P Q R S T U V W X Y Z # 

I'll Be Here A While Tabs (ver.1)

311
Rating:
0/5 (0 votes)

Hard to play? Try these video lessons and learn fast.
                'I'll Be Here Awhile'
Performed by 311
Music by:  N. Hexum & D. Martinez
Lyrics by:  N. Hexum & D. Martinez
(c) 2001 Hydroponic Music BMI
---------------


Intro (Acoustic Guitar):
[Guitar 1:]
   Am              F#mdim  G        G6  G5  C5  N.C.
e:-0---0-0---0--0--2--0-2--3----3-2-0-------------------------
B:-1---1-1---1--1--1--1-1--0----0-0-0---3---1---0-------0-1---
G:-2---2-2---2--2--2--2-2--0----0-0-0---0---0---0---0h2-----2-
D:------------------------------------------------------------
A:------------------------------------------------------------
E:------------------------------------------------------------

   Am              F#mdim (G)   (B5)  (G6)    N.C.
E:-0---0-0---0--0--2--0-2--3-----2-----0--------------------
B:-1---1-1---1--1--1--1-1----0-----0-----0----3---1---0---0-
G:-2---2-2---2--2--2--2-2------0-----0-----0----0---0---0---
D:----------------------------------------------------------
A:----------------------------------------------------------
E:----------------------------------------------------------

Chorus:
[Guitar 2:]
   Am                G
e:-0-0-0-0-0-0-0-0---3-3-3-3-3-3-3-3-
B:-1-1-1-1-1-1-1-1---0-0-0-0-0-0-0-0-
G:-2-2-2-2-2-2-2-2---0-0-0-0-0-0-0-0-
D:-----------------------------------
A:-----------------------------------
E:-----------------------------------

Verse:
[Guitar 2:]
   D6                          Em
e:-7-7-7--7-7-7--7-7-7--7-7-7--3--3--3--3--3--3--3--3-
B:-7-7-7--7-7-7--7-7-7--7-7-7--5--5--5--5--5--5--5--5-
G:-7-7-7--7-7-7--7-7-7--7-7-7--4--4--4--4--4--4--4--4-
D:----------------------------------------------------
A:----------------------------------------------------
E:----------------------------------------------------

   D6                          Em
e:-7-7-7--7-7-7--7-7-7--7-7-7--3--3--3-3-3--3-3-3--3-3-3-
B:-7-7-7--7-7-7--7-7-7--7-7-7--5--5--5-5-5--5-5-5--5-5-5-
G:-7-7-7--7-7-7--7-7-7--7-7-7--4--4--4-4-4--4-4-4--4-4-4-
D:-------------------------------------------------------
A:-------------------------------------------------------
E:-------------------------------------------------------

   Cmaj7                               G
e:-3--3-3---3--3-3---3--3-3---3--3-3---3--3-3---3--3-3---3--3-3---3--3-3-
B:-5--5-5---5--5-5---5--5-5---5--5-5---3--3-3---3--3-3---3--3-3---3--3-3-
G:-4--4-4---4--4-4---4--4-4---4--4-4---4--4-4---4--4-4---4--4-4---4--4-4-
D:-5--5-5---5--5-5---5--5-5---5--5-5---5--5-5---5--5-5---5--5-5---5--5-5-
A:-3--3-3---3--3-3---3--3-3---3--3-3---5--5-5---5--5-5---5--5-5---5--5-5-
E:-------------------------------------3--3-3---3--3-3---3--3-3---3--3-3-

   Cmaj7                               G
e:-3--3-3---3--3-3---3--3-3---3--3-3---3--3-3---3--3-3---3--3-3---3--3-3-
B:-5--5-5---5--5-5---5--5-5---5--5-5---3--3-3---3--3-3---3--3-3---3--3-3-
G:-4--4-4---4--4-4---4--4-4---4--4-4---4--4-4---4--4-4---4--4-4---4--4-4-
D:-5--5-5---5--5-5---5--5-5---5--5-5---5--5-5---5--5-5---5--5-5---5--5-5-
A:-3--3-3---3--3-3---3--3-3---3--3-3---5--5-5---5--5-5---5--5-5---5--5-5-
E:-------------------------------------3--3-3---3--3-3---3--3-3---3--3-3-

Fill 1 (Acoustic Guitar):
[Guitar 1:]
   Am              F#mdim  G        G6 (G5)(C5) N.C.
e:-0---0-0---0--0--2--0-2--3----3-2-0-----------------------
B:-1---1-1---1--1--1--1-1--0----0-0-0---3---1---0-------0h1-
G:-2---2-2---2--2--2--2-2--0----0-0-0--(0)-(0)-(0)--0h2-----
D:----------------------------------------------------------
A:----------------------------------------------------------
E:----------------------------------------------------------

Bridge:
[Guitar 2:]
   Bm                Em
e:-----2-2h5p2---2-------2-3-----
B:---3---------3-------5-----5---
G:-4-----------------4---------4-
D:-------------------------------
A:-------------------------------
E:-------------------------------

   Bm                Em
e:-----2-2h5p2---2-------2-3-----
B:---3---------3-------5-----5---
G:-4-----------------4---------4-
D:-------------------------------
A:-------------------------------
E:-------------------------------

[Guitar 1:]
  (Cmaj7)        (G)
e:----------------------3---------
B:-------5----5-------3---3-------
G:-----4---4--------4-------4-----
D:---5------------5-----------5---
A:-3------------------------------
E:--------------------------------

  (Cmaj7)        (G)
e:----------------------3---------
B:-------5----5-------3---3-------
G:-----4---4--------4-------4-----
D:---5------------5-----------5---
A:-3------------------------------
E:--------------------------------

[Guitar 2:]
   Cmaj7          G
e:-0-0--0--0-0--0-3-3--3--3-3--3-
B:-0-0--0--0-0--0-3-3--3--3-3--3-
G:-0-0--0--0-0--0-0-0--0--0-0--0-
D:-2-2--2--2-2--2-0-0--0--0-0--0-
A:-3-3--3--3-3--3-2-2--2--2-2--2-
E:----------------3-3--3--3-3--3-

   Cmaj7          G
e:-0-0--0--0-0--0-3-3--3--3-3--3-
B:-0-0--0--0-0--0-3-3--3--3-3--3-
G:-0-0--0--0-0--0-0-0--0--0-0--0-
D:-2-2--2--2-2--2-0-0--0--0-0--0-
A:-3-3--3--3-3--3-2-2--2--2-2--2-
E:----------------3-3--3--3-3--3-

Please note: the bridge section is probably not played exactly as written,
although I did try to be as accurate as possible. It just gives you some
idea as to what to play. Just follow the chord symbols and you can make up
pretty much anything that sounds cool!

Fill 2 (Acoustic Guitar):
[Guitar 1:]
   Am              F#mdim  G        G6  G5  C5  N.C.
e:-0---0-0---0--0--2--0-2--3----3-2-0-----------------------
B:-1---1-1---1--1--1--1-1--0----0-0-0---3---1---0-------0-1-
G:-2---2-2---2--2--2--2-2--0----0-0-0---0---0---0---0h2-----
D:----------------------------------------------------------
A:----------------------------------------------------------
E:----------------------------------------------------------

   Am              F#mdim (G)   (B5)  (G6)    N.C.
E:-0---0-0---0--0--2--0-2--3-----2-----0--------------------
B:-1---1-1---1--1--1--1-1----0-----0-----0----3---1---0---0-
G:-2---2-2---2--2--2--2-2------0-----0-----0----0---0---0---
D:----------------------------------------------------------
A:----------------------------------------------------------
E:----------------------------------------------------------

   Am              F#mdim  G        G6  G5  C5  N.C.
e:-0---0-0---0--0--2--0-2--3----3-2-0-----------------------
B:-1---1-1---1--1--1--1-1--0----0-0-0---3---1---0-------0-1-
G:-2---2-2---2--2--2--2-2--0----0-0-0---0---0---0---0h2-----
D:----------------------------------------------------------
A:----------------------------------------------------------
E:----------------------------------------------------------

   Am              F#mdim
E:-0---0-0---0--0--2--0-2-
B:-1---1-1---1--1--1--1-1-
G:-2---2-2---2--2--2--2-2-
D:------------------------
A:------------------------
E:------------------------

Ending:
[Guitars 1 & 2:]
   G
e:-3-
B:-0-
G:-0-
D:---
A:---
E:---


Song Structure/Lyrics:
---> Play Intro (x1)
---> Play Chorus over:
---> Play Verse over:
---> Play Chorus over:
---> Play Verse over:
---> Play Chorus and Fill 1 over:
---> Play Bridge over:
---> Play Chorus and Fill 2 over:
---> Play Ending
            
Hard to play? Try these video lessons and learn fast. | Correct




comments powered by Disqus
↑ Back to top | Tablatures and chords are parodies/interpretations of the original songs. You may use it for private study, scholarship, research or language learning purposes only