» »

/0-9/311-tabs-28.html

»

311, Hydroponics Tabs (ver.1)

Artists:  A B C D E F G H I J K L M N O P Q R S T U V W X Y Z # 

Hydroponics Tabs (ver.1)

311 Tabs
 Rating:
4/5 (4 votes)
Hydroponics lessons Tabs too difficult? Try these video lessons and learn fast
1
                'Hydroponic'
Performed by 311
Music by:  C. Sexton
Lyrics by:  N. Hexum & D. Martinez
(c) 1993 Allegiance Music/Hydroponic Music BMI
---------------


Fill 1 (w/Mild Distortion):
   N.C.
1:------------------------------------------------------------------
2:--7--8p7---5\\3--3h5p3--------------------------------------------
3:--------------------------4--(4)----------------------------------
4:-----------------------------------7-5--(5)\\4\\2//4\-2--0--(0)h2-
5:------------------------------------------------------------------
6:------------------------------------------------------------------

Intro (w/Distortion):
   E5   A5   G5    F5
1:------------------------
2:------------------------
3:------------------------
4:-2-2--7-7--5--5--3--3-3-
5:-2-2--7-7--5--5--3--3-3-
6:-0-0--5-5--3--3--1--1-1-

Riff 1 (w/Distortion):
    E5/B       F5/C      E5/B       F5/C      E5/B       F5/C
1:-----------------------------------------------------------------
2:-----------------------------------------------------------------
3:-(9-9--9--9--10-10-10--9-9--9--9--10-10-10--9-9--9--9--10-10-10)-
4:--9-9--9--9--10-10-10--9-9--9--9--10-10-10--9-9--9--9--10-10-10--
5:--7-7--7--7---8--8--8--7-7--7--7---8--8--8--7-7--7--7---8--8--8--
6:--7-7--7--7---8--8--8--7-7--7--7---8--8--8--7-7--7--7---8--8--8--

    E5/B    G5/D
1:--------------
2:--------------
3:-(9-9--9--12)-
4:--9-9--9--12--
5:--7-7--7--10--
6:--7-7--7--10--

Riff 2 (w/Distortion):
   F#sus2                               E5 F5
1:-------------------------------------------
2:-------------------------------------------
3:-------------------------------------------
4:-x-x-6-x-x-6-x-x-6-x-x-6-x-x-6-x-x-6--2--3-
5:-x-x-4-x-x-4-x-x-4-x-x-4-x-x-4-x-x-4--2--3-
6:-x-x-2-x-x-2-x-x-2-x-x-2-x-x-2-x-x-2--0--1-

   F#sus2            A5 F#sus2        E5
1:----------------------------------------
2:----------------------------------------
3:----------------------------------------
4:-x-x-6-x-x-6-x-x-6-7--6-x-x-6-x-x-6-2-2-
5:-x-x-4-x-x-4-x-x-4-7--4-x-x-4-x-x-4-2-2-
6:-x-x-2-x-x-2-x-x-2-5--2-x-x-2-x-x-2-0-0-

Pre-Chorus (w/Distortion):
   A5         A#5   B5            A5 B5 C5 A5 B5 C5    B5
1:-------------------------------------------------------
2:-------------------------------------------------------
3:-------------------------------------------------------
4:-7---7----7-8---8-9----9---9-9--7--9--10-7--9--10-10-9-
5:-7---7----7-8---8-9----9---9-9--7--9--10-7--9--10-10-9-
6:-5-0-5--0-5-6-0-6-7--0-7-0-7-7--5--7---8-5--7---8--8-7-

   A5         A#5   B5            A5 B5 C5        B5
1:--------------------------------------------------
2:--------------------------------------------------
3:--------------------------------------------------
4:-7---7----7-8---8-9----9---9-9--7--9--10--10-10-9-
5:-7---7----7-8---8-9----9---9-9--7--9--10--10-10-9-
6:-5-0-5--0-5-6-0-6-7--0-7-0-7-7--5--7--8---8--8--7-

Chorus (w/Distortion):
   E    A    B  E    A    B  E    A    B  E    A    B   C#m
1:-7-7--5-5--7--7-7--5-5--7--7-7--5-5--7--7-7--5-5--7---9-
2:-9-9--5-5--7--9-9--5-5--7--9-9--5-5--7--9-9--5-5--7---9-
3:-9-9--6-6--8--9-9--6-6--8--9-9--6-6--8--9-9--6-6--8---9-
4:-9-9--7-7--9--9-9--7-7--9--9-9--7-7--9--9-9--7-7--9--11-
5:-7-7--7-7--9--7-7--7-7--9--7-7--7-7--9--7-7--7-7--9--11-
6:------5-5--7-------5-5--7-------5-5--7-------5-5--7---9-

Chorus - End (w/Distortion):
   Bm
1:-7-7-7-
2:-7-7-7-
3:-7-7-7-
4:-9-9-9-
5:-9-9-9-
6:-7-7-7-

Fill 2 (Clean):
   N.C.
1:-4-5-4-2-------
2:---------5-5-0-
3:---------------
4:---------------
5:---------------
6:---------------


Lyrics/Song Structure:
---> Bass intro from ending of 'Unity' w/Fill 1
---> Play Intro (x4)
---> Play Riff 1 over:
   Mother Nature supreme step back and dream
   The hydroponic scene
   Found around knocked out of bounds wound
   Into the mind of my stone cloud
   Taste the thinnest of oxygen
   Rising higher, a stoner cause I can groove something
   Wrecking nothing to prove see that's in my nature, so fresh
   The vital bud of the chronic tastes of something thicker
---> Play Riff 2 over:
   Everything I eat is from the Earth, right?
   I am what I eat, straight up Earth, right?
   Nothing but a walking sack of earth nice to meet you
   How do you do, guess what, you're one too
   My skin holds me in, my brain moves me then Boom
   I jump straight off the speaker in a form
   A celebration that we're moving
   Freely disconnected, I'm truly grateful
   I'm going back to the earth, I'm not gonna waste life being hateful
---> Play Pre-Chorus over:
   Kingdom coming through ya
   Kingdom coming through ya
---> Play Chorus over:
   Jumpin' out of my skin, The skin I'm in
   And the hydroponic's on
---> Play Chorus - End
---> Play Riff 1 over:
   Did it because we wanna, took up until it's gone
   An abstract notion here to connect me to the ocean
   Cause I'm water and carbon and not much else
   I feel compunction, Conjunction Junction what's your function
   I'll be hooking up verbs and nouns and phrases and clause
   As to the causes of misery quizically
   I look to my own book hooked on trying to fathom
   The solar systems and atom in a larger molecule
   Called a galaxy, cool, the the Milky Way is where I stay
---> Play Riff 2 over:
   Astronomy steppin' stompin' a pow wow
   I rock the mike and shake up the ground, and I'm a bust out like
   Wild dandelions in fat bloom
   I'm shooting through the cosomos because you know I loom
   You know I'm higher, I'm shining brighter, yes yes
   Like where water comes together with other water foamin'
   Now I'm homin' like a bird soaring right to the moon
   I'm a wildflower busting out I go boom
---> Play Pre-Chorus over:
   Kingdom coming through ya
   Kingdom coming through ya
---> Play Chorus over:
   Jumpin' out of my skin, The skin I'm in
   And the hydroponic's on
---> Play Chorus and Fill 2 over:
   Jumpin' out of my skin, The skin I'm in
   And the hydroponic's on
---> End on E5 (02xxxx)
            
Submit corrections

comments powered by Disqus
↑ Back to top | 311 Tabs for Hydroponics. Lyrics for acoustic guitar and electric guitar. 1 Tablatures and chords are parodies/interpretations of the original songs. You may use it for private study, scholarship, research or language learning purposes only