» »

/0-9/311-tabs-28.html

»

311, Hive Tabs (ver.1)

Artists:  A B C D E F G H I J K L M N O P Q R S T U V W X Y Z # 

Hive Tabs (ver.1)

311 Tabs
 Rating:
4/5 (4 votes)
Hive lessons Tabs too difficult? Try these video lessons and learn fast
1
                311
“Hive”
311

this is the first song I heard off their self-titled CD. 
This song is awesome, I hope this tab is useful. 
You’ll have to do the timing yourself, 
if you listen to the song its pretty easy. 

INTRO:
1:-----------------------------------------------------------------------------------
2:-----------------------------------------------------------------------------------
3:-----------------------------------------------------------------------------------
4:-----------2---2---2---2---2---2---2---2---2---2---2---2---2-----------------------
5:---0---0---0---0---0---0---0---0---0---0---0---0---0---0---0-----------------------
6:-----------------------------------------------------------------------------------
VERSE: keep repeating this riff until he says “the one who knows about things” 
then do VERSE con.
1:-------------------------------------------------------
2:-------------------------------------------------------
3:-------------------------------------------------------
4:------------2---3------3------3----------------------
5:---2---3---0---1------1------1----------------------
6:---0---1---0---1------1------1----------------------

VERSE con.: do this riff 2 times. 
1:---------------------------------------------------------------------
2:--------------------------------------------------------------------- 
3:---------------------------------------------------------------------
4:---------------------------------------------------------------------
5:---2-----------------------------------------------------------------
6:---0---2---3------5------3------2------5/7-----------------------

When Nick Says, “Then its time for the dub….” Pause until he says, “…and you know just what 
I do….”  The guitar riff he does there is…
1:------------------------------------------------------------------
2:---5--------------------------------------------------------------
3:------3------4---------------------------------------------------
4:---------3------4------5-----------4----5-----------------------
5:-------------------3------4-------------------5------------------
6:-----------------------------3------------------------------------
Then Just Repeat VERSE con., do the pause, then the riff after the pause.
Then when Nick says, “Three Eleven show….”  You do this riff below..
1:------------------------------------------------------------------
2:------------------------------------------------------------------
3:------------------------------------------------------------------
4:---------------------------------------0--------------0----------
5:---2---2------2-------2---------2----0----------------0---------
6:---2---2------2-------2---------2------------2------------------
you do this riff until after Nick says, “…cuz the groove is hellified.”

The last riff you need to know Is the one they do right after Nick says, “Its ninety five, 
we go for the hive.” 
1:------------------------------------------------------------------
2:------------------------------------------------------------------
3:------------------------------------------------------------------
4:---------------------------2------3------4----------------------
5:---2------4-------5-------0------1------2----------------------
6:---0------2-------3---------------------------------------------

1:------------------------------------------------------------------
2:------------------------------------------------------------------
3:------------------------------------------------------------------
4:---2---2---2---2---2-------------------------------------------
5:---0---0---0---0---0-------------------------------------------
6:--------------------------0--------------------------------------
do these riffs for the next 2 verses, then at the very end when Nick is done singing
and they say, “its ninety five and we go for the hive” the last time you do…
1:------------------------------------------------------------------
2:------------------------------------------------------------------
3:------------------------------------------------------------------
4:------------2---3------------------------------------------------
5:---2---3---0---1------------------------------------------------
6:---0---1---0---1------------------------------------------------
            
Submit corrections

comments powered by Disqus
↑ Back to top | 311 Tabs for Hive. Lyrics for acoustic guitar and electric guitar. 1 Tablatures and chords are parodies/interpretations of the original songs. You may use it for private study, scholarship, research or language learning purposes only