» »

/0-9/311-tabs-28.html

»

Grassroots Bass tabs (ver.1)

Artists:  A B C D E F G H I J K L M N O P Q R S T U V W X Y Z # 

Grassroots Bass tabs (ver.1)

311
Rating:
0/5 (0 votes)

Hard to play? Try these video lessons and learn fast.
                (1)
'Grassroots' -- Bass Tab
Performed by 311
Music by: N. Hexum, C. Sexton
Lyrics by: N. Hexum, D.Martinez
(c) 1994 Allegiance Music/Hydroponic Music BMI
-------------

Riff 1a:

G:-----------------------------------------------
D:-----------------------------------------------
A:---------0----1///3-------------0--------1///3-
E:-1-1-0-1---1----------1-1-1-0-1---1-0-1--------
B:-----------------------------------------------

G:-----------------------------------------------
D:-----------------------------------------------
A:----------0----1///3-------3---2---1---0-------
E:--1-1-0-1---1---------1-1-----------------0----
B:---------------------------------------------0-

Riff 1b:

G:---------------------------
D:---------------------------
A:------3---2---1---0--------
E:-1-1------------------0----
B:-------------------------0-

Riff 2:

G:--------------------
D:--------------------
A:---4---4----6---6---
E:-3---3----5---5---5-
B:--------------------

Little slap thing after "I look for absolutes..." part:

G:--------3xxx-
D:-5xxx--------
A:-------------
E:-------------
B:-------------

Riff 3:

G:---------------
D:---------------
A:---------------
E:-3--2-3--2---0-
B:---------------

Play over solo:

G:--------------------------------------------------
D:--------------------------------------------------
A:-------------------1-1--1-1-1-1-1-----------------
E:--1-1--1-1-1-1-1-------------------3-3--3-3-3-3-3-
B:--------------------------------------------------


== Last Updated:  February 25, 1998 ==
            
Hard to play? Try these video lessons and learn fast. | Correct




comments powered by Disqus
↑ Back to top | Tablatures and chords are parodies/interpretations of the original songs. You may use it for private study, scholarship, research or language learning purposes only