>
 >
 >
Give Me A Call 1

Give Me A Call 1 Guitar Tabs

311 - Give Me A Call 1 chords, tabs, tablatures, lyrics

Guitar lessons | Add/correct | Request | Top 50 tabs Artists:  A B C D E F G H I J K L M N O P Q R S T U V W X Y Z 0-9

Give Me A Call 1 Guitar Tabs – 311

CD, Sheet music, Poster

Do you like Give Me A Call 1? Share with your friends now
TabsTabs v2
Tuning: Standard (E A D G B E)



Intro/Verse Riff (Clean):

E|-------------------------------------------------------------------||
B|-------------------------------------------------------------------||
G|-------------------------------------------------------------------||
D|-------------------------------------------------------------------||
A|-5-------------------------------5---------------------------------||
E|---2-3-5-5-5-5-0-5-5-5-5-5-5-5-----2-3-5-5-5-5-0-5-5-5-5-5-5-5-----||

Intro/Verse Riff (Distortion)

E|-------------------------------------------------------------------||
B|-------------------------------------------------------------------||
G|-------------------------------------------------------------------||
D|-------------------------------------------------------------------||
A|-(5)-------------------------------5-------------------------------||
E|-----2-3-5-5-5-5-0-5-5-5-5-5-5-5-----2-3-5-5-5-5-0-5-5-5-5-5-5-5---||

()'s Not Played First Time

Chorus Riff (Clean):

E|-------------------------------------------------------------||
B|-------------------------------------------------------------||
G|-------------------------------------------------------------||
D|---------1-----------------------------1---------------------||
A|-2-2-2-2---2-------------------2-2-2-2---2-------------------||
E|--------------5-5-5-5-5-4-2----------------5-5-5-5-5-4-2-4---||

E|-------------------------------------------------------------||
B|-------------------------------------------------------------||
G|-------------------------------------------------------------||
D|---------1----------------------------1----------------------||
A|-2-2-2-2---2------------------2-2-2-2---2--------------------||
E|-------------5-5-5-5-5-4-2----------------5------------------||

Chorus Riff (Distorted:)

E|----------------------------------------------------------------||
B|----------------------------------------------------------------||
G|-4-4-4-4-4-4-4-----------------4-4-4-4-4-4-4--------------------||
D|-4-4-4-4-4-4-4-----------------4-4-4-4-4-4-4--------------------||
A|-2-2-2-2-2-2-2-----------------2-2-2-2-2-2-2--------------------||
E|---------------5-5-5-5-5-4-2-----------------5-5-5-5-5-4-2------||

E|----------------------------------------------------------------||
B|----------------------------------------------------------------||
G|-4-4-4-4-4-4-4-----------------4-4-4-4-4-4-4--------------------||
D|-4-4-4-4-4-4-4-----------------4-4-4-4-4-4-4--------------------||
A|-2-2-2-2-2-2-2-----------------2-2-2-2-2-2-2--------------------||
E|---------------5-5-5-5-5-4-2-----------------5------------------||

Bridge (S.A.'s Part):

E|-----------------0-4-----------------0-4-0--------------||
B|--------------------------------------------------------||
G|----3-4-6----3-4---------3-4-6----4-6-------4-3---------||
D|-4--------2-----------4--------2------------------------||
A|--------------------------------------------------------||
E|--------------------------------------------------------||


E|---------------0-4-------------------0-4-(0)------------||
B|--------------------------------------------------------||
G|----3-4-6---3-4--------3-4-6----3--4--------------------||
D|-4-------2----------4--------2--------------------------||
A|--------------------------------------------------------||
E|--------------------------------------------------------||
()'s Only on First Time

Bridge (Nick's Part):

E|--------------------------------------------------------||
B|--------------------------------------------------------||
G|--------------------------------------------------------||
D|---1-1-1---------------1-1-1----------------------------||
A|-2-------0-----------2-------0--------------------------||
E|-----------4-4-2-2-------------2-2-2-2-2-2-0-0----------||


E|--------------------------------------------------------||
B|--------------------------------------------------------||
G|--------------------------------------------------------||
D|---1-1-1---------------1-1-1----------------------------||
A|-2-------0-----------2-------0--------------------------||
E|-----------4-4-2-2--------------------------------------||

Fill 1:

E|---------------------------------||
B|---------------------------------||
G|---------------------------------||
D|---------------------------------||
A|---------------------------------||
E|-5-4-2-0--5-4-2-0----------------||

Song Order:
Intro/Verse Riff (Clean)W/ Palm Muting x6
Chorus Riff (Clean)W/ Palm Muting x1
Intro/Verse Riff (Distortion) x2
Chorus Riff (Distortion) x1
Intro/Verse Riff(Clean)W/ Palm Muting x 4
Chorus Riff (Clean)W/ Palm Muting x1
Intro Verse Riff (Distortion) x2
Chorus Riff (Distortion) x1
Bridge (S.A's Part) x2
Bridge (Nick's Part) x1
Intro/Verse Riff (Distortion) x2
Chorus Riff (Distortion) x2 W/ Fill 1 Replacing End of Riff on First Time





Comments


Popular 311 tabs & chords
Galaxy 1 Bass Tabs
Galaxy 2 Bass Tabs
Gap 2 Bass Tabs
Life's Not A Race 1 Bass Tabs
Sever Bass Tabs
Strangers 1 Bass Tabs
Wake Your Mind Up 1 Bass Tabs
Freak Out Tabs
Freeze Time (Intro) Tabs
Silver Tabs


Song lyrics



↑ Back to top | Tablatures and chords are parodies/interpretations of the original songs. You may use it for private study, scholarship, research or language learning purposes only
© 2014 AZChords.com Contact us | Privacy policy | DMCA | Add/correct tabs | Request tabs | Top 50 tabs