» »

/0-9/311-tabs-28.html

»

311, From Chaos Bass tabs (ver.1)

Artists:  A B C D E F G H I J K L M N O P Q R S T U V W X Y Z # 

From Chaos Bass tabs (ver.1)

311 Tabs
Rating:
0/5 (0 votes)
From Chaos  lessons Tabs too difficult? Try these video lessons and learn fast
                (2)
311-From Chaos (4-string)


 RIFF 1
G ------------------------------------------------
D ------------------------------------------------
A -------------------------------------3----------
E -3-3-3-1-1-1-0--0-1-1-2--3-3-3-1-1-1---x-x-0-0-1

 RIFF 2
G ------------------------------------------------
D ------------------------------------------------
A ---0-0-0-0-0-3-5-3------------------------------
E ------------------------------------------------

 RIFF 3
G ------------------------------------------------
D ------------------------------------------------
A -5-3-5-3-7-3-3---3------------------------------
E ---------------5--------------------------------

 RIFF 4
G ------------------------------------------------
D ------------------------------------------------
A -----5-3-3-1-1-0-------5-5-3-1-1-0--------------
E -3-3---------------3-3--------------------------


RIFF 1 (x2)
RIFF 2 (x8)
RIFF 3 (x4)
RIFF 2 (x4)
RIFF 4 (x4)
RIFF 1 (x2)
RIFF 2 (x4)
RIFF 3 (x4)
BRIDGE (NO BASS DURING BRIDGE)
RIFF 4 (x4)
RIFF 1 (x2)
            

comments powered by Disqus
↑ Back to top | 311 Bass for From Chaos. Lyrics for acoustic guitar and electric guitar. Tablatures and chords are parodies/interpretations of the original songs. You may use it for private study, scholarship, research or language learning purposes only