» »

/0-9/311-tabs-28.html

»

Freeze Time Tabs

Artists:  A B C D E F G H I J K L M N O P Q R S T U V W X Y Z # 

Freeze Time Tabs

(ver. 2)
311 Tabs
 Rating:
4/5 (4 votes)
    Freeze Time lessons Tabs too difficult? Try these video lessons and learn fast
                -----------7-----6-----------6---------------------------------------
---4-------7-----6-----7-----6-----7-----6-----7---------------------
---4-------5-----4-----7-----4-----7-----6-----7---------------------
---2-------------------5-----------5-----4-----5---------------------




-----------7-----6-----------6---------------------------------------
---4-------7-----6-----7-----6-----7-----6-----7---------------------
---4-------5-----4-----7-----4-----7-----6-----7---------------------
---2-------------------5-----------5-----4-----5---------------------
            
Submit corrections

↑ Back to top | 311 Tabs for Freeze Time. Lyrics for acoustic guitar and electric guitar. Tablatures and chords are parodies/interpretations of the original songs. You may use it for private study, scholarship, research or language learning purposes only