» »

/0-9/311-tabs-28.html

»

Firewater Slo-Mo Bass tabs (ver.1)

Artists:  A B C D E F G H I J K L M N O P Q R S T U V W X Y Z # 

Firewater Slo-Mo Bass tabs (ver.1)

311
Rating:
0/5 (0 votes)

Hard to play? Try these video lessons and learn fast.
                Intro:

F:---------------------------
C:---------------------------
B:---------------------------
D:-0--5--3--2---0-0--5--3--2-

Riff 1:

F:----------------------
C:----------------------
B:----------------------
D:-0--2--3---0--2--3--5-

Riff 2:

F:---------------------------
C:---------------------------
B:---------------------------
D:-0-0-0h2h4h2-0-0-0h2h4h2h0-

Chorus:

F:-----------------------------------------
C:-----------------------------------------
B:-----------------------------------------
D:-2-2-2-3h5-------5---0-0-0-2h3-------5---

Bridge:

F:---------------------------------------------------------------------
C:---------------------------------------------------------------------
B:---------------------------------------------------------------------
D:-5--3--2-2--0-0---5--3--2-2--0-0--5--3--2-2--0-0---5--3--2--5--3--2--

Bridge 2:

F:-----------------------------------------------------------------
C:-----------------------------------------------------------------
B:-----------------------------------------------------------------
D:-0-0--2-2--3-3--2-2--0-0--0-0-0--2-2--3-3--2-2--5--3--2--5--3--2-


Song Stucture:
Intro     - (2x)
Rift 1    - (4x)
Rift 2    - (4x)
Rift 1    - (4x)
Rift 2    - (4x)
Chorus    - (8x)
Rift 1    - (4x)
Rift 2    - (4x)
Chorus    - (8x)
Bridge    - (4x)
Bridge 2  - (4x)
            
Hard to play? Try these video lessons and learn fast. | Correct




comments powered by Disqus
↑ Back to top | Tablatures and chords are parodies/interpretations of the original songs. You may use it for private study, scholarship, research or language learning purposes only