» »

/0-9/311-tabs-28.html

»

311, Feel So Good Bass tabs (ver.1)

Artists:  A B C D E F G H I J K L M N O P Q R S T U V W X Y Z # 

Feel So Good Bass tabs (ver.1)

311 Tabs
Rating:
0/5 (0 votes)
Feel So Good lessons Tabs too difficult? Try these video lessons and learn fast
                (2)
Tuning:Standard Low to High E A D G

Intro:

G-------------------------------------------------2-
D----------------------3-2-0-0-0----------3-0-2-3---
A-5-5---5-5-----------------------------------------continued'
E-----------3-4-5-5--3------------3-4-5-5-----------

G---------------------------------------------
D----------------------3-2-0-0-0--------------
A-5-5---5-5-----------------------------------play 1x
E-----------3-4-5-5--3------------3-4-5-3-1-0-

Verse 1:"Well everybody got an opinion...."

G-------------------------------------------------------
D-----------------3-----------------5-----------------6-
A-3h5-3h5-3h5-3h5---3h5-3h5-3h5-3h5---3h5-3h5-3h5-3h5---continued'
E-------------------------------------------------------

G-------------------
D-------------------
A-3h5-3h5-3h5-3h5---play 3x
E-----------------3-

Pre-Chorus:"Paybacks a..."
                                                     p p
G----------------------------------------------------2-2-
D----------------------3-2-0-0-0----------3-0-2-3-2x--2x--
A-5-5---5-5-----------------------------------------------Continued'
E-----------3-4-5-5--3------------3-4-5-5-----------------

Gc
D-----------------------3-2-0-0-0--------------
A-5-5---5-5------------------------------------play 1x
E------------3-4-5-5--3------------3-4-5-5-5-5-

Chorus:"In your face..."

G-------------------------
D-------------------------
A---5-7-------------------play 3x
E-7-----0-0-0-3-0-3-0-0-0-

G----------------
D----------------
A---5-7----------play 1x
E-7-----0-0--0-0-

Verse 2:"Take it to em..."

G-------------------------------------------------------
D-----------------3-----------------5-----------------6-
A-3h5-3h5-3h5-3h5---3h5-3h5-3h5-3h5---3h5-3h5-3h5-3h5---continued'
E-------------------------------------------------------

G-------------------
D-------------------
A-3h5-3h5-3h5-3h5---play 3x
E-----------------3-

Pre-Chorus:"I get.."

G-------------------------------------------------2-
D----------------------3-2-0-0-0----------3-0-2-3---
A-5-5---5-5-----------------------------------------continued'
E-----------3-4-5-5--3------------3-4-5-5-----------

G----------------------------------------------
D-----------------------3-2-0-0-0--------------
A-5-5---5-5------------------------------------play 1x
E------------3-4-5-5--3------------3-4-5-5-5-5-

Chorus:"In your face..."
                                                   P
G--------------------------------------------------9-
D----------------------------------------------------
A---5-7----------------------5-7-------------7x-7x---play 1x
E-7-----0-0-0-3-0-3-0-0-0--7-----0-0-0-3-0-3---------

G-----------------------------------------
D-----------------------------------------
A---5-7----------------------5-7----------play 1x
E-7-----0-0-0-3-0-3-0-0-0--7-----0-0--0-0-

Bass Solo:"Yo P-nut Beat that thing..."
     p      P      P      P P
G----7------7------7------7-7-------
D---------------------------7-------
A-5x--5x-5x--5x-5x--5x-5x-----0xh5x-play 3x
E-----------------------------------
        P P         P P       P
G-------7-5h7-------7-5h-7----7-
D-------------------------------
A-0xh5x-------0xh5x--------5x---Play 1x
E-------------------------------

     p      P      P      P P
G----7------7------7------7-7-------
D---------------------------7-------
A-5x--5x-5x--5x-5x--5x-5x-----0xh5x-play 3x
E-----------------------------------

G----P----P----P----P-
D----6----5----3----2-
A---------------------play 1x
E-4x---3x---1x---0x---

Verse 3:

G-------------------------------------------------------
D-----------------3-----------------5-----------------6-
A-3h5-3h5-3h5-3h5---3h5-3h5-3h5-3h5---3h5-3h5-3h5-3h5---continued'
E-------------------------------------------------------

G-------------------
D-------------------
A-3h5-3h5-3h5-3h5---play 2x
E-----------------3-

Pre-Chorus:"Just take a moment..."
                                                     P P
G----------------------------------------------------2-2-
D----------------------3-2-0-0-0----------3-0-2-3-2x--2x--
A-5-5---5-5-----------------------------------------------Continued'
E-----------3-4-5-5--3------------3-4-5-5-----------------

G----------------------------------------------
D-----------------------3-2-0-0-0--------------
A-5-5---5-5------------------------------------play 1x
E------------3-4-5-5--3------------3-4-5-5-5-5-

Chorus:"In your face..."

G--------------------------------------------------9-
D----------------------------------------------------
A---5-7----------------------5-7-------------7x-7x---play 1x
E-7-----0-0-0-3-0-3-0-0-0--7-----0-0-0-3-0-3---------

G-----------------------------------------
D-----------------------------------------
A---5-7----------------------5-7----------play 1x
E-7-----0-0-0-3-0-3-0-0-0--7-----0-0--0-0-
            

comments powered by Disqus
↑ Back to top | 311 Bass for Feel So Good. Lyrics for acoustic guitar and electric guitar. Tablatures and chords are parodies/interpretations of the original songs. You may use it for private study, scholarship, research or language learning purposes only