» »

/0-9/311-tabs-28.html

»

311, Feel So Good Tabs (ver.2)

Artists:  A B C D E F G H I J K L M N O P Q R S T U V W X Y Z # 

Feel So Good Tabs (ver.2)

311 Tabs
Rating:
0/5 (0 votes)
Feel So Good lessons Tabs too difficult? Try these video lessons and learn fast
                Intro (and any other time the high notes are played)

-|---10-x-10-x-10-x-10-x-10-10--|------------|--------------------------------
-|---10-x-10-x-10-x-10-x-10-10--|------------|--------------------------------
-|------------------------------|------------|--------------------------------
-|------------------------------|------------|--------------------------------
-|------------------------------|------------|--------------------------------
-|------------------------------|---5-3-2-0--|--------------------------------
                                                                              
Main Verse Riff:

-|----------------------------------------------------------------------------
-|----------------------------------------------------------------------------
-|----------------------------------------------------------------------------
-|-------------------3b------------------5b------------------5b---------------
-|---3h5-3h5-3h5-3h5-----3h5-3h5-3h5-3h5-----3h5-3h5-3h5-3h5------------------
-|----------------------------------------------------------------------------
                                                                              

-|------------------------|-
-|------------------------|-
-|------------------------|-
-|------------------------|-
-|---3h5-3h5-3h5-3h5------|-
-|-------------------3b---|-

-|---10-x-10-x-10-x-10-x-10-10--|-
-|---10-x-10-x-10-x-10-x-10-10--|-
-|------------------------------|-
-|------------------------------|-
-|------------------------------|-
-|------------------------------|-
                                                                              
Chorus:

-|----------------------------------------------------------------------------
-|----------------------------------------------------------------------------
-|---4--7--9\-----------------------------------------------------------------
-|---4--7--9\-----------------------------------------------------------------
-|---2--5--7\-----------------------------------------------------------------
-|-------------0-0-2-0-2b-2-0-------------------------------------------------
                                                                              
Riff after P-Nut "Beats that thing":

-|--------------|-------------------------------------------------------------
-|--------------|-------------------------------------------------------------
-|---7----------|-------------------------------------------------------------
-|---7--7-5-4-2-|-------------------------------------------------------------
-|---5----------|-------------------------------------------------------------
-|--------------|-------------------------------------------------------------


-Chuckmo
            

comments powered by Disqus
↑ Back to top | 311 Tabs for Feel So Good. Lyrics for acoustic guitar and electric guitar. Tablatures and chords are parodies/interpretations of the original songs. You may use it for private study, scholarship, research or language learning purposes only