» »

/0-9/311-tabs-28.html

»

311, Do You Right Bass tabs (ver.1)

Artists:  A B C D E F G H I J K L M N O P Q R S T U V W X Y Z # 

Do You Right Bass tabs (ver.1)

311 Tabs
 Rating:
4/5 (4 votes)
Do You Right  lessons Tabs too difficult? Try these video lessons and learn fast
                (2)
Intro:
g:-----|
d:-----|
a:-----|
e:5/15\|
b:-----|


Riff 1:
g:------------------|
d:------------------|
a:------------------|
e:0-4-5--0--4--5-045|
b:------------------|


Riff 2:
g:------------------------------|
d:------------------------------|
a:------------------------------|
e:0-2-3--2-3-2------0-2-3--2-3-2|
b:------------------------------|


Riff 3:
g:-------------------------|
d:-------------------------|
a:---7---------------------|
e:5----5-----------7-------|
b:--------3--3---5---5--3-3|


Riff 4:
g:------------------------------------------------------------|
d:-------------------------7-4-7----------7---6----------7-4-7|
a:--------4-----4-5-5-5--5--------7-7---7---7----5-5---5------|
e:5-5---5---5-------------------------------------------------|
b:------------------------------------------------------------|


Riff 5:
g:-----------------|
d:-----------------|
a:-----------------|
e:5----10---12---10|
b:-----------------|
            
Submit corrections

comments powered by Disqus
↑ Back to top | 311 Bass for Do You Right. Lyrics for acoustic guitar and electric guitar. Tablatures and chords are parodies/interpretations of the original songs. You may use it for private study, scholarship, research or language learning purposes only