>
 >
 >
Dont Tread On Me 2

Dont Tread On Me 2 Guitar Tabs

311 - Dont Tread On Me 2 chords, tabs, tablatures, lyrics

Guitar lessons | Add/correct | Request | Top 50 tabs Artists:  A B C D E F G H I J K L M N O P Q R S T U V W X Y Z 0-9

Dont Tread On Me 2 Guitar Tabs – 311

CD, Sheet music, Poster

Do you like Dont Tread On Me 2? Share with your friends now
Bass TabsChordsTabsTabs v2Tabs v3Ukulele
311
Dont Tread On Me

Standard Tuning

Intro
1:--5-------------------------------------------------------------------|
2:--5-------5---------------5-------------------------------------------|
3:--5---------5-----------7---7-4---------5-2---5-2----------4/5---4/5--|
4:--7-----7-----7-5----55---------5-3---3-----3-----3-2~---2-----2------|
5:--7-------------------------------------------------------------------|
6:--5-------------------------------------------------------------------|

Clean
1:--8--8--8--8--7--7--7--7--5--5--5--5--5--5--5--5--|
2:--8--8--8--8--9--9--9--9--5--5--5--5--6--6--6--6--|
3:--9--9--9--9--7--7--7--7--5--5--5--5--5--5--5--5--|
4:--------------------------------------------------|
5:--------------------------------------------------|
6:--------------------------------------------------|

1:-x-x-5-x-x-x-5-x-x-x-5-x-x-x-5-x-x-x-3-x-x-x-3-x-x-x-3-x-x-x-3-x-|
2:-x-x-5-x-x-x-5-x-x-x-5-x-x-x-5-x-x-x-3-x-x-x-3-x-x-x-3-x-x-x-3-x-|
3:-x-x-5-x-x-x-5-x-x-x-5-x-x-x-5-x-x-x-4-x-x-x-4-x-x-x-4-x-x-x-4-x-|
4:-----------------------------------------------------------------|
5:-----------------------------------------------------------------|
6:-----------------------------------------------------------------|

1:-x-x-5-x-x-x-5-x-x-x-5-x-x-x-5---------------3---|
2:-x-x-6-x-x-x-6-x-x-x-6-x-x-x-6--------5------3---|
3:-x-x-5-x-x-x-5-x-x-x-5-x-x-x-5----4---4--4---4---|
4:----------------------------------2---2--5-------|
5:----------------------------------2------5-------|
6:-----------------------------------------3-------|

Riff 1 (Clean):
1:--8--8--8--8--7--7--7--7--5--5--5--5--5--5--5--5--|
2:--8--8--8--8--9--9--9--9--5--5--5--5--6--6--6--6--|
3:--9--9--9--9--7--7--7--7--5--5--5--5--5--5--5--5--|
4:--------------------------------------------------|
5:--------------------------------------------------|
6:--------------------------------------------------|

1:-------------------------------------------------|
2:-------------------------------------------------|
3:-------------------------------------------------|
4:-------------------------------------------------|
5:--------------------------------5-----------5----|
6:-5-5-5-0--5--555-5-0--5---3-3-3---3---333-3----3-|

Distorted
1:---------------------------------------------------------------------------|
2:---------------------------------------------------------------------------|
3:---------------------------------------------------------------------------|
4:--7-7--5/7-7--3-x3/5--7-7--5/7-7--3-x-3-5--7-7--5/7-7--3-x3/5--------------|
5:--7-7--5/7-7--3-x3/5--7-7--5/7-7--3-x-3-5--7-7--5/7-7--3-x3/5--2------2----|
6:--5-5--3/5-5--1-x1/3--5-5--3/5-5--1-x-1-3--5-5--3/5-5--1-x1/3--0--3/5-0--3-|

Riff 5
1:-x-x-8-x-x-x-8-x-x-x-8-x-x-x-8-x-x-x-7-x-x-x-7-x-x-x-7-x-x-x-7-x-x-x-5-x---|
2:-x-x-8-x-x-x-8-x-x-x-8-x-x-x-8-x-x-x-9-x-x-x-9-x-x-x-9-x-x-x-9-x-x-x-5-x---|
3:-x-x-9-x-x-x-9-x-x-x-9-x-x-x-9-x-x-x-7-x-x-x-7-x-x-x-7-x-x-x-7-x-x-x-5-x---|
4:---------------------------------------------------------------------------|
5:---------------------------------------------------------------------------|
6:---------------------------------------------------------------------------|

1:-x-x-x-5-x-x-x-5-x-x-x-5-x-x-x-5-x--|
2:-x-x-x-6-x-x-x-6-x-x-x-6-x-x-x-6-x--|
3:-x-x-x-5-x-x-x-5-x-x-x-5-x-x-x-5-x--|
4:------------------------------------|
5:------------------------------------|
6:------------------------------------|

1:-------------------------------------1919-16-----------------------17------|
2:----17-20------------------------------------17-----------------------17---|
3:-17---------------------------------------------19-----------------------1-|
4:---------------------------------------------------------------------------|
5:---------------------------------------------------------------------------|
6:---------------------------------------------------------------------------|

1:-17----------20-18-------20-17------|
2:----17--------------20---------18---|
3:-------17---------------------------|
4:------------------------------------|
5:------------------------------------|
6:------------------------------------|

1:-20----------------------------------1919-16------------|
2:----20-17------------------------------------17---------|
3:----------17------------------------------------19------|
4:--------------------------------------------------------|
5:--------------------------------------------------------|
6:--------------------------------------------------------|

1:-17----------20-18-------20-17------|
2:----17--------------20---------18---|
3:-------17---------------------------|
4:------------------------------------|
5:------------------------------------|
6:------------------------------------|

Distorted
1:--------------------------------------------------|
2:---------------555555555555-----------------------|
3:-222222222222-------------------<-Sound FX->------|
4:--------------------------------------------------|
5:--------------------------------------------------|
6:--------------------------------------------------|

Distorted
1:-x-x-8-x-x-x-8-x-x-x-8-x-x-x-8-x-x-x-7-x-x-x-7-x-x-x-7-x-x-x-7-x-x-x-5-x-|
2:-x-x-8-x-x-x-8-x-x-x-8-x-x-x-8-x-x-x-9-x-x-x-9-x-x-x-9-x-x-x-9-x-x-x-5-x-|
3:-x-x-9-x-x-x-9-x-x-x-9-x-x-x-9-x-x-x-7-x-x-x-7-x-x-x-7-x-x-x-7-x-x-x-5-x-|
4:-------------------------------------------------------------------------|
5:-------------------------------------------------------------------------|
6:-------------------------------------------------------------------------|

1:-x-x-x-5-x-x-x-5-x-x-x-5-x-x-x-5-x--|
2:-x-x-x-6-x-x-x-6-x-x-x-6-x-x-x-6-x--|
3:-x-x-x-5-x-x-x-5-x-x-x-5-x-x-x-5-x--|
4:------------------------------------|
5:------------------------------------|
6:------------------------------------|

1:-------------------------------------1919-16-----------------------17------|
2:----17-20------------------------------------17-----------------------17---|
3:-17---------------------------------------------19-------------------------|
4:---------------------------------------------------------------------------|
5:---------------------------------------------------------------------------|
6:---------------------------------------------------------------------------|

1:-17----------20-18-------20-17------|
2:----17--------------20---------18---|
3:-------17---------------------------|
4:------------------------------------|
5:------------------------------------|
6:------------------------------------|

Distorted
1:-x-x-8-x-x-x-8-x-x-x-8-x-x-x-8-x-x-x-7-x-x-x-7-x-x-x-7-x-x-x-7-x-x-x-5-x-|
2:-x-x-8-x-x-x-8-x-x-x-8-x-x-x-8-x-x-x-9-x-x-x-9-x-x-x-9-x-x-x-9-x-x-x-5-x-|
3:-x-x-9-x-x-x-9-x-x-x-9-x-x-x-9-x-x-x-7-x-x-x-7-x-x-x-7-x-x-x-7-x-x-x-5-x-|
4:-------------------------------------------------------------------------|
5:-------------------------------------------------------------------------|
6:-------------------------------------------------------------------------|

1:-20----------------------------------1919-16-----------------------17----|
2:----20-17------------------------------------17-----------------------17-|
3:----------17------------------------------------19-----------------------|
4:-------------------------------------------------------------------------|
5:-------------------------------------------------------------------------|
6:-------------------------------------------------------------------------|

Ending (Distortion):
1:----------------------------------|
2:----------------------------------|
3:---------------------5------------|
4:-3-----3-----3/5-----5--<-fade->--|
5:-3-----3-----3/5-----3------------|
6:-1-----1-----1/3-----3------------|





Comments


Popular 311 tabs & chords
Borders 1 Bass Tabs
Flowing 2 Bass Tabs
Inner Light Spectrum 2 Bass Tabs
Intro Bass Tabs
Strangers 2 Bass Tabs
Hive 2 Tabs
Jackolantern's Weather Tabs
Sun Come Through Tabs
Time Is Precious Intro Tabs
Uncalm 2 Tabs


Song lyrics



↑ Back to top | Tablatures and chords are parodies/interpretations of the original songs. You may use it for private study, scholarship, research or language learning purposes only
© 2014 AZChords.com Contact us | Privacy policy | DMCA | Add/correct tabs | Request tabs | Top 50 tabs