» »

/0-9/311-tabs-28.html

»

Don Dwell Bass tabs (ver.1)

Artists:  A B C D E F G H I J K L M N O P Q R S T U V W X Y Z # 

Don Dwell Bass tabs (ver.1)

311
Rating:
0/5 (0 votes)

Hard to play? Try these video lessons and learn fast.
                311
Don't Dwell


Intro:
      T  T P  P     T P  P  T   P  P
G|---------4----------4---------2--2---------||
D|----0h5x----5-----x----5--x----------------||
A|-------------------------------------------||
E|-------------------------------------------||
B|-------------------------------------------||

      T  T P  P     T P  P  T   P  P
G|---------4----------4---------5--5---------||
D|----0h5x----5-----x----5--x----------------||
A|-------------------------------------------||
E|-------------------------------------------||
B|-------------------------------------------||x2

Verse:
      T  T P  P     T P  P  T   P  P
G|---------4----------4---------2--2---------||
D|----0h5x----5-----x----5--x----------------||
A|-------------------------------------------||
E|-------------------------------------------||
B|-------------------------------------------||

      T  T P  P     T P  P  T   P  P
G|---------4----------4---------5--5---------||
D|----0h5x----5-----x----5--x----------------||
A|-------------------------------------------||
E|-------------------------------------------||
B|-------------------------------------------||x2

Chorus
G|------------------------------------------||
D|-------7-7--------7-----(7)---------------||
A|------------------------------------------||
E|--0h5--------0h5-----(5)------------------||
B|------------------------------------------|| x 2

() = don't play last time

G|------------------------------||
D|------------------------------||
A|-------2----3-----------3---3-||
E|----5---------------3-3---3---||
B|------------------------------||

G|---7-----7-------------||
D|-----------------------||
A|------5-----5----5--5--||
E|-----------------------||
B|-----------------------||

G|---------------------------------------||
D|---------------------------------------||
A|------------------2-----------2--------||
E|--0-----0--3-5-3------5---3------5--3--||
B|-----0---------------------------------||

G|-------------8---------------------8--------||
D|-----5---8------8--5-------5--8-------8--5--||
A|--6---------------------6-------------------||
E|--------------------------------------------||
B|--------------------------------------------||

Last part:
G|-------------------------------9/7---------------------------------||
D|-------------------------------------------------------------------||
A|-------------------------------------------------------------------||
E|---3--3----5--5----7--7----8---------------------------------------||
B|-------------------------------------------------------------------||


Ending:
G|---------4-5-4----4-5-4---------------------------||
D|-------5--------5---------------------------------||
A|-----------------------------2-3-2----2-3-2-------||
E|---------------------------3--------3----------3--||
B|--------------------------------------------------||
            
Hard to play? Try these video lessons and learn fast. | Correct




comments powered by Disqus
↑ Back to top | Tablatures and chords are parodies/interpretations of the original songs. You may use it for private study, scholarship, research or language learning purposes only