» »

/0-9/311-tabs-28.html

»

Dancehall Bass tabs (ver.1)

Artists:  A B C D E F G H I J K L M N O P Q R S T U V W X Y Z # 

Dancehall Bass tabs (ver.1)

311
Rating:
0/5 (0 votes)

Hard to play? Try these video lessons and learn fast.
                (1)
Riff 1
1|---------5------------|
2|------------7---------|
3|---------------8--7---|
4|--0--0----------------|
5|----------------------|

Riff 2
1|--------------|
2|--------------|
3|--------------|
4|--1--1--4--4--|
5|--------------|

Riff 3
1|----------------------------------|
2|--2-----------2------------2------|
3|----------------------------------|
4|-----0--0--0----0--0--0------0----|
5|----------------------------------|

Riff 4
1|----------|
2|----------|
3|----------|
4|--4/6/4---|
5|----------|

~*~Song Structure~*~
Riff 1 - 12 Times
Riff 2 - 8 Times
Riff 3 - 8 Times
Riff 1 - 8 Times
Riff 2 - 8 Times
Riff 3 - 4 Times
Riff 2 - 4 Times
Riff 4 - 1 Time
            
Hard to play? Try these video lessons and learn fast. | Correct




comments powered by Disqus
↑ Back to top | Tablatures and chords are parodies/interpretations of the original songs. You may use it for private study, scholarship, research or language learning purposes only