>
 >
 >
Creatures (For A While) 1

Creatures (For A While) 1 Guitar Tabs

311 - Creatures (For A While) 1 chords, tabs, tablatures, lyrics

Guitar lessons | Add/correct | Request | Top 50 tabs Artists:  A B C D E F G H I J K L M N O P Q R S T U V W X Y Z 0-9

Creatures (For A While) 1 Guitar Tabs – 311

CD, Sheet music, Poster

Do you like Creatures (For A While) 1? Share with your friends now
TabsTabs v2
311
Creatures (for a while)
Corect tablature By: Nick_311

Slide Down- /
Pause- `
palm Mute or lay off note- x
Hammer on- h
Harmonic- < >

Play these note with your middle and ring finger
e[-------------------------------------
B[-------------------------------------
G[-------------------------------------
D[-------------------------------------
A[--6-/-4-4-4-x-4-/-2-2-x-2-x-x-------Ring
E[--6-/-4-4-4-x-4-/-2-2-x-2-x-x-------Middle
 Play 3x

e[---------------------------------------
B[---------------------------------------
G[---------------------------------------
D[---------------------------------------
A[--6-/-4-4-4-x-4-`-2-x-2-`-2-`----------
E[--6-/-4-4-4-x-4-`-2-x-2-`-2-`----------

To make the note sound less thick you can do this
e[--6-/-4-4-4-x-4-/-2-2-x-2---x--x---
B[--6-/-4-4-4-x-4-/-2-2-x-2---x--x---
G[--8-/-6-6-6-x-6-/-4-4-x-4---x--x---
D[--8-/-6-6-6-x-6-/-4-4-x-4---x--x---
A[--6-/-4-4-4-x-4-/-2-2-x-2---x--x---
E[--6-/-4-4-4-x-4-/-2-2-x-2---x--x---
Play 3x By the way Tim doesn’t do this
It just makes it sound Better If you’d like
To play it…

e[--6-/-4-4-4-x-4-`-2-x-2-`-2-`-[-2-2-2-2--1----
B[--6-/-4-4-4-x-4-`-2-x-2-`-2-`-[-2-2-2-2--1----
G[--8-/-6-6-6-x-6-`-4-x-4-`-4-`-[-4-4-4-4--2----
D[--8-/-6-6-6-x-6-`-4-x-4-`-4-`-[-4-4-4-4--3----
A[--6-/-4-4-4-x-4-`-2-x-2-`-2-`-[-2-2-2-2--3----
E[--6-/-4-4-4-x-4-`-2-x-2-`-2-`-[-2-2-2-2--1----








As the guitar fades out you can play this
If you like He played this on The Kreige 
Kilborn show.
e[---------------------------------
B[---------------------------------
G[---------------------------------
D[---------------------------------
A[---------------------------------
E[-1-`-1-`-1-h-3-4-`-1-------------

It Could be eigther one of these notes
for this next riff
e[-2------4--------
B[-2------7--Stum--
G[-3------6---DOWN-
D[-4--OR--4----A---
A[-4------4-----lot
E[-2---------------

Play this while S.A. sings
e[--------------------------------------
B[--------------------------------------
G[--------------------------------------
D[----------------x-x-x-x---------------
A[----------------x-x-x-x---------------
E[--1-x-1-4-x-4-1-x-x-x-x---------------
I know it looks cheap but it's corect
Hey you could do power chords if you'd like?
I listened and figured that the notes sound 
too thick to be power chords though.

Now the Chorus
e[------------------------------------
B[------------------------------------
G[------------------------------------
D[--6-x-4-x-7--x-x--6--4--7-----------
A[--6-x-4-x-7--x-x--6--4--7-----------
E[--4-x-2-x-5--x-x--4--2--5-----------
Play 3x

e[---------------------------
B[---------------------------
G[---------------------------
D[--x--6--4--7--x--x---------
A[--x--6--4--7--x--x---------
E[--x--4--2--5--x--x---------
play 2x




e[---------------------------------
B[---------------------------------
G[---------------------------------
D[-7-------7--------7-------7------
A[-7-------7--------7-------7------
E[-5--<5>--5---<5>--5--<5>--5------
 It comes and goes and come and goes

Now the last riff you need to complete the song
E[--------------------------------------------
B[--------------------------------------------
G[--------------------------------------------
D[--6-----6-----6-----6-----7-----7------7----
A[--6-----6-----6-----6-----7-----7------7----
E[--4-<4>-4-<4>-4-<4>-4-<4>-5-<5>-5--<5>-5-<5>

e[------------
B[------------
G[--5----3----
D[--6----4----
A[--6----4----
E[--4----2----
     Just Like You

This should be at least 99.9% correct 
I saw him play it on The late night show
With Kreige Kilborn that’s how I got the
First riff’s notes, make any comments if
You’d like to.





Comments


Popular 311 tabs & chords
Creatures Bass Tabs
Evolution 1 Bass Tabs
Love Song 5 Bass Tabs
Six 1 Bass Tabs
Space Funk Bass Tabs
This Too Shall Pass Bass Tabs
Can't Fade Me 1 Tabs
Loco 1 Tabs
Soulsucker Tabs
What Was I Thinking Tabs


Song lyrics



↑ Back to top | Tablatures and chords are parodies/interpretations of the original songs. You may use it for private study, scholarship, research or language learning purposes only
© 2014 AZChords.com Contact us | Privacy policy | DMCA | Add/correct tabs | Request tabs | Top 50 tabs