» »

/0-9/311-tabs-28.html

»

311, Crack The Code Bass tabs (ver.1)

Artists:  A B C D E F G H I J K L M N O P Q R S T U V W X Y Z # 

Crack The Code Bass tabs (ver.1)

311 Tabs
Rating:
0/5 (0 votes)
Crack The Code lessons Tabs too difficult? Try these video lessons and learn fast
                
Tuning: Standard (B E A D G)


Intro/Verse:

G|---------------4---2--------------------------2--0-------------------||
D|----------5--------------5----------------3----------3---------------||
A|------5-------------------------------3------------------------------||
E|--3-----------------------------1------------------------------------||
B|---------------------------------------------------------------------||

G|-----------2--0-----------------------------------||
D|--------3---------3-------------------------------||
A|-----3--------------------------7----------9------||
E|-1------------------------5--8------7--10---------||
B|--------------------------------------------------||

Verse:

G|----------------------------------------------------------------||
D|-------3--------------------5-----------------------------------||
A|----3------3---3---------5------5---5---------------------------||
E|-1-----------1--------3-----------3-----------------------------||
B|----------------------------------------------------------------||


Transition to SA rap part:

G|------------------------------------------------------||
D|------------------------------------------------------||
A|---------3--------3----------2///7-7-7----------------||
E|--1--1------1--1-------0--0---------------------------||
B|------------------------------------------------------||

SA rap part:

G|---------------------------------||
D|---------------------------------||
A|----------(2h3)------------------||
E|-5-5-5-5-------------------------||
B|---------------------------------|| x6

()- every 4th time

G|----------------------||
D|----------------------||
A|----------------------||
E|-0-0-0-0-0-0-0-0-0----||
B|----------------------||

Chorus:

G|-----------------------------||
D|-----------------------------||
A|-----------------------------||
E|----------------1--1---1--1--||
B|--3--3---3--3----------------||


Chorus- after playing the chorus riff once, P-nut 
throws in a little slap for a measure:

                 T P T   T P T
G|-------------------------------||
D|-----------------3-------3-----||
A|-------------------------------||
E|---------------1---1---1---1---||
B|-3--3---3--3-------------------||


Transistion back to verse:


G|---------------------------------||
D|---------------------------------||
A|---------------------------------||
E|--0-----0--3--5----7-------------||
B|-----3---------------------------||


Ending:

G|---------------------------------||
D|---------------------------------||
A|---------------------------------||
E|--0-----0--3--5----7-----3-------||
B|-----3---------------------------||
            
Submit corrections

comments powered by Disqus
↑ Back to top | 311 Bass for Crack The Code. Lyrics for acoustic guitar and electric guitar. Tablatures and chords are parodies/interpretations of the original songs. You may use it for private study, scholarship, research or language learning purposes only