» »

/0-9/311-tabs-28.html

»

Crack The Code Bass tabs (ver.2)

Artists:  A B C D E F G H I J K L M N O P Q R S T U V W X Y Z # 

Crack The Code Bass tabs (ver.2)

311
Rating:
0/5 (0 votes)

Hard to play? Try these video lessons and learn fast.
                Intro/Verse: 
G|---------------4---2--------------------------2--0----------------------------2--0-----------------------------------
D|----------5--------------5----------------3----------3---------------------3---------3-------------------------------
A|------5-------------------------------3----------------------------------3--------------------------7-----------9---- 
D--5----------------------------3-------------------------------------3-----------------------7--10------9--12------
First verse x6
Second verse x2

Verse: 
G|--------------------------------------------------------------- 
D|-------3--------------------5--------------------------------- 
A|----3------3---3---------5------5---5-----------------------
D-3-----------3---------5-----------5--------------------------
Both verses x3

Transition to SA rap part:
G|------------------------------------------------------
D|------------------------------------------------------ 
A|--------3--------3----------2///7-7-7----------------
D|---3--3---3-3-------2-2----------------------------


SA rap part: 
G|-------------------------------- 
D|-------------------------------- 
A|----------(2h3)--------------- 
D-7-7-7------------------------- x6 
(  ) every 4th time 
  
G|---------------------- 
D|---------------------- 
A|---------------------- 
D-2-2-2-2-2-2-2-2-2 

Chorus: 
G|----------------------------- 
D|----------------------------- 
A|----------------------------- 
D--0--0--0--0----3-3-3-3--- x4 

Transistion back to verse: 
G|--------------------------------
D|-------------------------------- 
A|-------------------------------- 
E|--2--0--2-5--7----9-----------

Ending: 
G|------------------------------- 
D|------------------------------- 
A|-------------------------------- 
E|--2--0--2--5--7----9-----5---
            
Hard to play? Try these video lessons and learn fast. | Correct




comments powered by Disqus
↑ Back to top | Tablatures and chords are parodies/interpretations of the original songs. You may use it for private study, scholarship, research or language learning purposes only