» »

/0-9/311-tabs-28.html

»

311, Crack The Code Tabs (ver.1)

Artists:  A B C D E F G H I J K L M N O P Q R S T U V W X Y Z # 

Crack The Code Tabs (ver.1)

311 Tabs
 Rating:
4/5 (4 votes)
Crack The Code lessons Tabs too difficult? Try these video lessons and learn fast
1
                Tuning: Standard ( E A D G B E)



Intro (Clean):
   G           Dm           F/D                 G/E
E|-7--7--7--7---5--5--5--5---8--8--8--8---8--8---10--10--||
B|-8--8--8--8---6--6--6--6---6--6--6--6---6--6---8---8---||
G|---7--7--7--7---7--7--7--7---7--7--7--7---7--7---12--12||
D|-------------------------------------------------------||
A|-------------------------------------------------------||
E|-------------------------------------------------------||

Verse Riff 1 (Heavy Distortion):
    G          Dm         F          Am    Bm   
E|------------------------------------------------------------||
B|-------------6-----6---------------1-----3------------------||
G|--4-----4----7-----7----2-----2----2-----4------------------||
D|--5-----5----7-----7----3-----3----2-----4------------------||
A|--5-----5----5-x-x-5----3-----3----0-x-x-2------------------||
E|--3-x-x-3---------------1-x-x-1-----------------------------||

Verse Riff 2 (Heavy Distortion):
   Dm         G          Dm         G         F   E
E|-----------------------------------------------(0)----------||
B|-5-----5---------------5-----5-----------------(0)----------||
G|-7-----7----4-----4----7-----7----4-----4--(2)-(1)----------||
D|-7-----7----5-----5----7-----7----5-----5--(3)-(2)----------||
A|-5-x-x-5----5-----5----5-x-x-5----5-----5--(3)-(2)----------||
E|------------3-x-x-3---------------3-x-x-3--(1)-(0)----------||

Pre-Chorus (Heavy Distortion):
  Am
E|-------------------------------------------------------------------||
B|-------5-5--------5-5--------5-5--------5-5--------5-5--------5-5--||
G|-------5-5--------5-5--------5-5--------5-5--------5-5--------5-5--||
D|-7-7-7------7-7-7------7-7-7------7-7-7------7-7-7------7-7-7------||
A|-7-7-7------7-7-7------7-7-7------7-7-7------7-7-7------7-7-7------|| 
E|-5-5-5------5-5-5------5-5-5------5-5-5------5-5-5------5-5-5------||
   E
E|-0-------0--0-------0------||
B|-0-------0--0-------0------||
G|-1-------1--1-------1------||
D|-2-------2--2-------2------||
A|-2-2-2-2-2--2-2-2-2-2------||
E|-0-0-0-0-0--0-0-0-0-0------||

Chorus (Heavy Distortion):
   D5            F5           D5            F5 
E|-------------------------------------------------------------||
B|-------------------------------------------------------------||
G|-7-7-5--7-7-5------5-----5--7-7-5--7-7-5------5------5-------||
D|-7-7----7-7----3-3---3-3----7-7----7-7----3-3----3-3---------||
A|-5-5----5-5----3-3---3-3----5-5----5-5----3-3----3-3---------||
E|-5-5----5-5----1-1---1-1----5-5----5-5----1-1----1-1---------||
   D5            F5            E             A5 B5 G5
E|------------------------------------------------------------||
B|------------------------------------------------------------||
G|-7-7-5--7-7-5------5------5--1~-----------------------------||
D|-7-7----7-7----3-3----3-3----2~---(/7/9\5)--7/9\5-----------||
A|-5-5----5-5----3-3----3-3----2~-------------7/9\5-----------||
E|-5-5----5-5----1-1----1-1----0~-------------5/7\3-----------||
()'s played by another guitar at the same time as the matching chords
            
Submit corrections

comments powered by Disqus
↑ Back to top | 311 Tabs for Crack The Code. Lyrics for acoustic guitar and electric guitar. 1 Tablatures and chords are parodies/interpretations of the original songs. You may use it for private study, scholarship, research or language learning purposes only