>
 >
 >
Color 2

Color 2 Bass Tabs

311 - Color 2 chords, tabs, tablatures, lyrics

Guitar lessons | Add/correct | Request | Top 50 tabs Artists:  A B C D E F G H I J K L M N O P Q R S T U V W X Y Z 0-9

Color 2 Bass Tabs – 311

CD, Sheet music, Poster

Do you like Color 2? Share with your friends now
Bass Tabs
Main:
g:-----------------------|
d:-----------------------|
a:-----------------------|
e:-----------------------|
b:5-5-0-0-6-6-5-5-3-3-5-3|

Riff 2:
g:-----------------------------------------------|
d:-----------------------------------------------|
a:--8--------8--------7--------5---4--------7----|
e:5---5-5--5---5-5--5---5-5--5---5---5-5--5---5-5|
b:-----------------------------------------------|

Riff 3:
g:-----------------------------------------------------|
d:--2--------2--------3--------3---------3--------3----|
a:3---3-3--3---3-3--5---5-5--5---5-5--4----4-4--4---4-4|
e:-----------------------------------------------------|
b:-----------------------------------------------------|

Riff 4:
g:----------------------------------|
d:----------------------------------|
a:--2--------2--------4--------4----|
e:3---3-3--3---3-3--2---2-2--2---2-2|
b:----------------------------------|

End:
g:------------|
d:------------|
a:------------|
e:2-2--1-----9|
b:------------|

Ver 2 (e-z-er for begin-erz)

g:-----------------------|
d:-----------------------|
a:-----------------------|
e:-----------------------|
b:5-5-0-0-6-6-5-5-3-3-5-3|

Riff 2:
g:-------------------------------------------------------------|
d:-------------------------------------------------------------|
a:0-8-0-0--0-8-0-0--0-7-0-0--0-7-0-0--0-5-0-0--0-4-0-0--0-7-0-0|
e:-------------------------------------------------------------|
b:-------------------------------------------------------------|

Riff 3(same)

Riff 4(same)

end(same)





Comments


Popular 311 tabs & chords
Blizza Bass Tabs
Galaxy 2 Bass Tabs
Let The Cards Fall 1 Bass Tabs
Rub A Dub 3 Bass Tabs
Transistor Bass Tabs
Use Of Time 2 Bass Tabs
Amber 5 Tabs
Flowing 1 Tabs
No Control Tabs
You Get Worked 1 Tabs


Song lyrics



↑ Back to top | Tablatures and chords are parodies/interpretations of the original songs. You may use it for private study, scholarship, research or language learning purposes only
© 2014 AZChords.com Contact us | Privacy policy | DMCA | Add/correct tabs | Request tabs | Top 50 tabs