» »

/0-9/311-tabs-28.html

»

Can't Fade Me Bass tabs (ver.2)

Artists:  A B C D E F G H I J K L M N O P Q R S T U V W X Y Z # 

Can't Fade Me Bass tabs (ver.2)

311
Rating:
0/5 (0 votes)

Hard to play? Try these video lessons and learn fast.
                Bassist: P-Nut
Tuning: B-E-A-D-G
Notes:

Intro:
G|-----------------------------------|
D|-----------------------------------|
A|-----------------------------------|
E|-----------------------------------|
B|--3-5-3-5-3-5-3-5-3-3-3-3--5--3-5--|


Verse 1:
G|---------------------|
D|---------------------|
A|---------------------|
E|---------------------|
B|--7-5-3-5-3-3-5-2-0--| (x4)

  In live videos from different songs you can see how P-Nut strums all the muted 
  strings with his fingertips
G|--x-x---x-x---x-x-x--x---x-x---x-x---x-x-x----x--|
D|--x-x---x-x---x-x-x--x---x-x---x-x---x-x-x-------|
A|--x-x---x-x---x-x-x--x---x-x---x-x---x-x-x-------|
E|--x-x---x-x---x-x-x--x---x-x---x-x---x-x-x-------|
B|--x-x---x-x---x-x-x--x---x-x---x-x---x-x-x--x----|
                                              S P
G|--------------------------------|
D|--------------------------------|
A|--------------------------------|
E|--7-5-7-5-7-5-7-5-5-5-5-5-5--5--|
B|--------------------------------|


Chorus:
G|---------------------|
D|---------------------|
A|---------------------|
E|---------------------|
B|--7-5-3-5-3-3-5-2-0--| (x4)

G|--13-13-11----11---------------13-13-11----11---------------16-16---14-14--|
D|-----------14----14-11--14--------------14----14-11--14-----18-18---16-16--|
A|---------------------------------------------------------------------------|
E|---------------------------------------------------------------------------|
B|---------------------------------------------------------------------------|

G|-------------------|
D|-------------------|
A|-------------------|
E|-------------------|
B|--3-5-3-5--3--3-3--|


Verse 2:
G|---------------------|
D|---------------------|
A|---------------------|
E|---------------------|
B|--7-5-3-5-3-3-5-2-0--| (x4)

G|--x-x---x-x---x-x-x--x---x-x---x-x---x-x-x--x--|
D|--x-x---x-x---x-x-x--x---x-x---x-x---x-x-x--x--|
A|--x-x---x-x---x-x-x--x---x-x---x-x---x-x-x--x--|
E|--x-x---x-x---x-x-x--x---x-x---x-x---x-x-x--x--|
B|--x-x---x-x---x-x-x--x---x-x---x-x---x-x-x--x--|

G|--------------------------------|
D|--------------------------------|
A|--------------------------------|
E|--7-5-7-5-7-5-7-5-5-5-5-5-5--5--|
B|--------------------------------|


Chorus:
G|---------------------|
D|---------------------|
A|---------------------|
E|---------------------|
B|--7-5-3-5-3-3-5-2-0--| (x4)

G|--13-13-11----11---------------13-13-11----11---------------16-16---14-14--|
D|-----------14----14-11--14--------------14----14-11--14-----18-18---16-16--|
A|---------------------------------------------------------------------------|
E|---------------------------------------------------------------------------|
B|---------------------------------------------------------------------------|

G|-------------------|
D|-------------------|
A|-------------------|
E|-------------------|
B|--3-5-3-5--3--3-3--|


Verse 3:
G|------------------------------------------|
D|------------------------------------------|
A|------------------------------------------|
E|------------------------------------------|
B|--7-5-3-5-3-3-5-2-0--7-5-3-5-3-3-5-2/14\--|

G|---------------------|
D|---------------------|
A|---------------------|
E|---------------------|
B|--7-5-3-5-3-3-5-2-0--| (x2)

G|----------9-----------------9-----------------9-----------------9--------|
D|-------------------------------------------------------------------------|
A|--7-----------------7-----------------7-----------------7----------------|
E|----0-0-0---x-0-0-0---0-0-0---x-0-0-0---0-0-0---x-0-0-0---0-0-0----0--0--|
B|-------------------------------------------------------------------------|
    S S S S P S S S S S S S S P S S S S P S S S P S S S S P S S S P  S  S


Outro:
G|---------------------------------------------------|
D|---------------------------------------------------|
A|---------------------------------------------------|
E|--0-2-2-3-3-3-0-2-2-3-3-3-0-2-2-3-3-3-3-3-3-2h3p2--|
B|---------------------------------------------------| (x2)

G|---------------------------------------------------|
D|---------------------------------------------------|
A|---------------------------------------------------|
E|---------------------------------------------------|
B|--0-2-2-3-3-3-0-2-2-3-3-3-0-2-2-3-3-3-3-3-3-2h3p2--| (x2)
            
Hard to play? Try these video lessons and learn fast. | Correct




comments powered by Disqus
↑ Back to top | Tablatures and chords are parodies/interpretations of the original songs. You may use it for private study, scholarship, research or language learning purposes only