» »

/0-9/311-tabs-28.html

»

311, Can Fade Me Bass tabs (ver.1)

Artists:  A B C D E F G H I J K L M N O P Q R S T U V W X Y Z # 

Can Fade Me Bass tabs (ver.1)

311 Tabs
Rating:
0/5 (0 votes)
Can	 Fade Me lessons Tabs too difficult? Try these video lessons and learn fast
                Intro:

G:---------------------------------
D:---------------------------------
A:---------------------------------
E:---------------------------------
B:-3-5-3-5-3-5-3-5-3-3-3-3--5--5-5-

Riff 1:
                                 *
G:----------------------------------
D:----------------------------------
A:----------------------------------
E:----------------------------------
B:--5-5--3--5--3---3--5--3--0---(3)-
                                 * Play this D every second time

Riff 2:
Muted Guitar Part (Slap these notes)

G:----------------------
D:----------------------
A:----------------------
E:-0--x--0-0--0--x--0-0-
B:----------------------

Riff 3:

G:---------------------------
D:---------------------------
A:-2-0-2-0-2-0-2-0-0-0-0-0-0-
E:---------------------------
B:---------------------------

Riff 4:

G:-----------------------------
D:-----------------------------
A:-----------------------------
E:-----------------------------
B:-5-5--5--3--5--3--3--5--3--0-  (Repeat 4x)

G:-13--13-11-10-11-10----10-
D:--------------------11----
A:--------------------------
E:--------------------------
B:--------------------------     (Repeat 2x)

G:-13-13-10-10---------------
D:-13-13-10-10---------------
A:---------------------------
E:---------------------------
B:-------------3-5-3-5-5-5-5-

Riff 5:

G:-----------------------------
D:-----------------------------
A:-----------------------------
E:-----------------------------
B:-5-5-3-5-3--3-5-3\\-13-11-10-

Riff 6 (Slap and Pop):

G:--------9----9----9----9-
D:-------------------------
A:----7----7----7----7-----
E:-xxx-xxx--xxx--xxx--xxx--
B:-------------------------

Riff 7:

G:------------------------------------------------
D:------------------------------------------------
A:------------------------------------------------
E:--0-2-3-3-3-3-0-2-3-3-3-3-0-2-3-3-3-3-3-0-2-3-2-
B:------------------------------------------------

Riff 7 (2nd part) and Ending:

G:------------------------------------------------
D:------------------------------------------------
A:--0-2-3-3-3-3-0-2-3-3-3-3-0-2-3-3-3-3-3-0-2-3-2-
E:--0-2-3-3-3-3-0-2-3-3-3-3-0-2-3-3-3-3-3-0-2-3-2-
B:------------------------------------------------


== [Version 2] ==

Intro:

G:-------------------------------
D:-------------------------------
A:-------------------------------
E:-------------------------------
B:-3-5-3-5-3-5-3-5-3-3-3---5-5-5-

Riff 1:

G:----------------------------------------
D:----------------------------------------
A:----------------------------------------
E:----------------------------------------
B:-5-5-3-5-3-3-5-3-0--7-5-3-5-3-3-5-3-0-3-

Riff 2:

G:------------------------------
D:------------------------------
A:------------------------------
E:-7-5-7-5-7-5-7-5-5-5-5-5-5--5-
B:------------------------------

Bridge:

G:-------------------
D:-------------------
A:-------------------
E:-------------------
B:-3-3-3-3-3-5-3-0-3-

High Fill at End of Bridge:

G:-20-19-17-------------------*-20-20-18-18---------------
D:----------20-18-17----------*-20-20-18-18---------------
A:-------------------20-17-17-*---------------------------
E:----------------------------*---------------------------
B:----------------------------*-------------3-5-3-5-5-5-5-
              2x             then       1x        

Slap Part:

G:-------x-7-
D:-----------
A:-5-x-x-----
E:-----------
B:-----------

Riff 3:

G:--------------------------------------------------
D:--------------------------------------------------
A:--------------------------------------------------
E:-0-2-2-3-3-3-0-2-2-3-3-3-0-2-2-3-3-3--3-3-3-2h3p2-
B:--------------------------------------------------
            

comments powered by Disqus
↑ Back to top | 311 Bass for Can Fade Me. Lyrics for acoustic guitar and electric guitar. Tablatures and chords are parodies/interpretations of the original songs. You may use it for private study, scholarship, research or language learning purposes only