» »

/0-9/311-tabs-28.html

»

311, Brodels Tabs (ver.1)

Artists:  A B C D E F G H I J K L M N O P Q R S T U V W X Y Z # 

Brodels Tabs (ver.1)

311 Tabs
Rating:
5/5 (2 votes)
Brodels lessons Tabs too difficult? Try these video lessons and learn fast
                ++Standard Tuning++                                   


-------------------|------------------------|------------------------|
-------------------|------------------------|------------------------|
-------------------|------------------------|------------------------|
-------------------|------------------------|------------------------|
----------------4--|-----2--4----2----x--4--|----2--4----2--7--6--4--|
----------------4--|-----2--4----2----x--4--|----2--4----2--7--6--4--|


                                                                        
-----------------------|-----------------------|
-----------------------|-----------------------|
-----------------------|-----------------------|
-----------------------|-----------------------|
----2--4----2----x--4--|----2--4----2--1----4--|
----2--4----2----x--4--|----2--4----2--2----4--|


------------------------|------------------------|------------------------|
------------------------|------------------------|------------------------|
------------------------|------------------------|------------------------|
------------------------|------------------------|------------------------|
----4--5--4--5--5----4--|--5--4--5--7----9----5--|----4--5--4--5--5----4--|
----2--3--2--3--3----2--|--3--2--3--5----7----3--|----2--3--2--3--3----2--|


                                                                           
------------------------|
------------------------|
------------------------|
------------------------|
--5--4--5--7----9----5--|
--3--2--3--5----7----3--|


------------------------------|------------------------------|
------------------------------|------------------------------|
------------------------------|------------------------------|
------------------------------|------------------------------|
--7--x-5-x-x-5--5--x-7-x-x-5--|--7--x-5-x-x-5--5--8-7-x-x-5--|
--5--x-3-x-x-3--3--x-5-x-x-3--|--5--x-3-x-x-3--3--6-5-x-x-3--|


                                                            
------------------------------|----------------------------|
------------------------------|----------------------------|
------------------------------|----------------------------|
------------------------------|----------------------------|
--7--x-5-x-x-5--5--x-7-x-x-5--|--7--x-5-x-x-5--5--5--4--3--|
--5--x-3-x-x-3--3--x-5-x-x-3--|--5--x-3-x-x-3--3--3--2--1--|


Chorus

-------------------------|-------------------------|-------------------------|
-------------------------|-------------------------|-------------------------|
-------------------------|-------------------------|-------------------------|
-------------------------|-------------------------|-------------------------|
----3--5--7--8--7--5--9--|----2--2--2--2--4-----3--|----3--5--7--8--7--5--5--|
----1--3--5--6--5--3--7--|----0--0--0--0--2--0--1--|----1--3--5--6--5--3--3--|


                                                                               
--------------------------|-------------------------|-------------------------|
--------------------------|-------------------------|-------------------------|
--------------------------|-------------------------|-------------------------|
--------------------------|-------------------------|-------------------------|
-----9--9--7--7--5--4--3--|----3--5--7--8--7--5--9--|----2--2--2--2--4-----3--|
--0--7--7--5--5--3--2--1--|----1--3--5--6--5--3--7--|----0--0--0--0--2--0--1--|


                                                       
-------------------------|---------------------------||
-------------------------|---------------------------||
-------------------------|---------------------------||
-------------------------|---------------------------||
----3--5--7--8--7--5--5--|-----2--4--5--2--4--5--4---||
----1--3--5--6--5--3--3--|--0--0--2--3--0--2--5--4---||


Ending

--------------------------|-----------------------------|
--------------------------|-----------------------------|
--------------------------|-----------------------------|
--------------------------|-----------------------------|
-----2--4--5--2--4--5--4--|--4---2-x-x-2--2--x-4-x-x-2--|
--0--0--2--3--0--2--5--4--|--4---2-x-x-2--2--x-4-x-x-2--|


                                                           
----------------------------|-----------------------------|
----------------------------|-----------------------------|
----------------------------|-----------------------------|
----------------------------|-----------------------------|
--4---2-x-x-2--2--5-4--x-2--|--4---2-x-x-2--2--x-4-x-x-2--|
--4---2-x-x-2--2--5-4--x-2--|--4---2-x-x-2--2--x-4-x-x-2--|


                                                           
----------------------------|-----------------------------|
----------------------------|-----------------------------|
----------------------------|-----------------------------|
----------------------------|-----------------------------|
--4---2-x-x-2--2--5-4--x-2--|--4---2-x-x-2--2--x-4-x-x-2--|
--4---2-x-x-2--2--5-4--x-2--|--4---2-x-x-2--2--x-4-x-x-2--|


                                                          
----------------------------|----------------------------|
----------------------------|----------------------------|
----------------------------|----------------------------|
----------------------------|----------------------------|
--4---2-x-x-2--2--5-4--x-2--|--4---2-x-x-2--2--5-4--x-2--|
--4---2-x-x-2--2--5-4--x-2--|--4---2-x-x-2--2--5-4--x-2--|


                                                             
----------------------------|-------------------------------|
----------------------------|-------------------------------|
----------------------------|-------------------------------|
----------------------------|-------------------------------|
--4---2-x-x-2--2--5-4---5-4-|----5-4---5--4--4--4--2--2--2--|
--4---2-x-x-2--2--5-4---5-4-|----5-4---5--4--4--4--2--2--2--|


                         
-----------------------||
-----------------------||
-----------------------||
-----------------------||
--4--5--4--------------||
--4--5--4--------------||
            
Submit corrections

comments powered by Disqus
↑ Back to top | 311 Tabs for Brodels. Lyrics for acoustic guitar and electric guitar. Tablatures and chords are parodies/interpretations of the original songs. You may use it for private study, scholarship, research or language learning purposes only